PrimaNota.ru - самый крупный в мире бесплатный архив песенных текстов, аккордов, табулатур и нот


Matt Mays - Past - таба, видео

Регистрация Запомнить меня
Войти через:  Facebook Google Twitter Vk Yandex Mail.ru

Matt Mays - Past - таба, видео

Печатать
Просмотров: 131
3-3---------------|
5-5---------------|
5-5---------------|
5-5---------------|
3-3-----3-3h5p3---|
3-3-3h5---------5-|

Sundown across the land
figure out what you don't under stand
a billion leaves fly
When the wind blows your mind

bring back the times we had
in another song that makes you feel sad
let the cold fall breeze
clear out your mind

3-3-3---3---3/1-1-1---1---1-|
3-3-3---3---3/1-1-1---1---1-|
5-5-5---5---5/3-3-3---3---3-|
5-5-5---5---5/3-3-3---3---3-|
5-5-5---5---5/3-3-3---3---3-|
3-3-3---3---3/1-3-3---3---3-|

and realize the past is gone
and keep on, keeping on.

0-0-0-0-0-0-0-0-0-0 0-0-0-0-0-0-0-0-0-0-|
1-1-1-1-1-1-1-1-1-1 1-1-1-1-1-1-1-1-1-1-|
0-0-0-3-3-2-2-2-2-2 0-0-0-0-0-0-0-0-0-0-|
2-2-2-2-2-x-x-x-x-x 2-2-2-3-3-2-2-2-2-2-|
3-3-3-3-3-3-3-3-3-3 3-3-3-3-3-3-3-3-3-3-|
0-0-0-0-0-0-0-0-0-0 0-0-0-0-0-0-0-0-0-0-|

3-3---------------|
5-5---------------|
5-5---------------|
5-5---------------|
3-3-----3-3h5p3---|
3-3-3h5---------5-|

just when you thought your fear was gone
and the murder of crows on your lawn
creeping in your mind
and hum in your soul

weird sounds seep throughout
this old house that creeps you out
a million crows fly
when the wind blows your mind

and even though the life is gone
they keep on, keeping on.

a woodstove lights the air
harder then the devils stair
the floor creaks when the ghost
goes walkin' by

Sundown across the land
figure out what you don't under stand
a billion leaves fly
When the wind blows your mind

and even though the life is gone
they keep on, keeping on.
and even though the life is gone
they keep on, keeping on.

--------------------|
5--3-----------3----|
------5-----5-----5-|
---------5----------|
--------------------|
--------------------|

Hum
Добавлено: 30.05.2012
Другие материалы по этой песне:
  • Аккорды и текст

Страница создана 26.02.2012
http://primanota.ru/matt-mays/past-chords.htm
Привет, Гость.
Предлагаем пройти революционный курс по гитаре.
Подарок от PrimaNota.Ru, забирай!