PrimaNota.ru - самый крупный в мире бесплатный архив песенных текстов, аккордов, табулатур и нот


Matt Duke - Rabbit - таба, видео

Регистрация Запомнить меня
Войти через:  Facebook Google Twitter Vk Yandex Mail.ru

Matt Duke - Rabbit - таба, видео

Печатать
Просмотров: 103
-------------------------------------------------------------------------
RABBIT – Matt Duke
-------------------------------------------------------------------------
Tabbed by: Kengus

Standard tuning
Capo on fourth fret!

INTRO (repeat x2)
   Dsus2    F#m7#5   G5           F#*  Em7      D/F#     G5       A7sus4
e|-----0--------0--------------------------------------------------------|
B|-------3--------3------3-----------------3--------3--------3--------3--|
G|---2--------2------------0----0---0--------0--------2--------0--------0|
D|-0--------4----------0--------------------------0--------0--------2----|
A|---------------------------------------2------------------------0------|
E|-------------------3--------3---2----0--------2--------3---------------|

VERSE (same as intro, repeat x2)
   Dsus2    F#m7#5   G5           F#*  Em7      D/F#     G5       A7sus4
e|-----0--------0--------------------------------------------------------|
B|-------3--------3------3-----------------3--------3--------3--------3--|
G|---2--------2------------0----0---0--------0--------2--------0--------0|
D|-0--------4----------0--------------------------0--------0--------2----|
A|---------------------------------------2------------------------0------|
E|-------------------3--------3---2----0--------2--------3---------------|

CHORUS (1st chorus is shorter than the others)
  Em7      D/F#     G5       A7sus4   Em7      D/F#     G5       A7sus4
e|-----------------------------------------------------------------------|
B|----3--------3--------3--------3--------3--------3--------3--------3---|
G|------0--------2--------0--------0--------0--------2--------0--------0-|
D|-----------0--------0--------2-----------------0--------0--------2-----|
A|--2------------------------0----------2------------------------0-------|
E|0--------2--------3-----------------0--------2--------3----------------|

BRIDGE
   G5           F#   Em7               D             G*     D
e|-----------------------------------------0h2p0----------------0h2p0----|
B|-----3-----------------3--------3--------------3-----3-----------------|
G|-------0----0---0--------0--------0----2---------2-----2----2----------|
D|---0---------------------------------0--------------------0------------|
A|---------------------2--------2----------------------------------------|
E|-3--------3---2----0--------0----------------------3-------------------|
   A7sus4   G5           A*   Bm7               Em7      D/F#     G5
e|-----------------------------------------------------------------------|
B|-----3--------3------3---3------3--------3--------3--------3--------3--|
G|-------0--------0-------------2---2----2---2--------0--------2--------0|
D|---2--------0--------------------------------------------0--------0----|
A|-0---------------------0----2--------2----------2----------------------|
E|----------3--------3--------------------------0--------2--------3------|
   A7sus4            A7
e|-----------------------|
B|-----3--------3----2---|
G|-------0--------0------|
D|---2--------2----------|
A|-0--------0------------|
E|-----------------------|

INTRO

VERSE1
Dsus2       F#m7#5          G5  F#*    Em7           D/F#        G5  A7sus4
  Every sentiment hangs around,     no longer than a minute or two
  Dsus2          F#m7#5  G5        F#*
And I find I keep falling for love    
   Em7              D/F#            G5  A7sus4
But I can't seem to follow it through

CHORUS
   Em7         D/F#       G5  A7sus4
So run, little rabbit, run
Em7         D/F#       G5   A7sus4
Run, little rabbit, run

VERSE2
Dsus2              F#m7#5           G5  F#*
  I leave one good hand on the wheel
     Em7           D/F#          G5  A7sus4
Been counting mile markers for days
    Dsus2          F#m7#5   G5
And everything falls further behind
F#*    Em7          D/F#      G5  A7sus4
 I can disappear in several ways

CHORUS
   Em7         D/F#       G5  A7sus4
So run, little rabbit, run
Em7         D/F#       G5  A7sus4
Run, little rabbit, run
Em7         D/F#       G5  A7sus4
Run, little rabbit, run
Em7         D/F#       G5  A7sus4

BRIDGE
G5               F#  Em7            D          G*       D         A7sus4
   Sleep through the morning, don't wake me up,   don't wake me up
G5               A*  Bm7          Em7       D/F#       G5         A7sus4  A7
   Sleep through the morning, one little man    to one mighty sun

VERSE3
Dsus2          F#m7#5           G5  F#*
  Try to break away from yourself
Em7                D/F#          G5  A7sus4
 Throw your broken bones in a heap
   Dsus2              F#m7#5        G5   F#*
And all your blood and guts are exposed
     Em7             D/F#          G5  A7sus4
Your spirit has been begging to leave

CHORUS
   Em7         D/F#       G5  A7sus4
So run, little rabbit, run
Em7         D/F#       G5  A7sus4
Run, little rabbit, run
   Em7         D/F#       G5  A7sus4
So run, little rabbit, run
Em7         D/F#       G5  A7sus4
Run, little rabbit, run.

=========================================================================
Comment, rate, appreciate!
Добавлено: 01.03.2012
Другие материалы по этой песне:

Страница создана 01.03.2012
http://primanota.ru/matt-duke/rabbit-chords.htm
Привет, Гость.
Предлагаем пройти революционный курс по гитаре.
Подарок от PrimaNota.Ru, забирай!