PrimaNota.ru - самый крупный в мире бесплатный архив песенных текстов, аккордов, табулатур и нот


Matt Duke - Kingdom Underground - таба, видео

Регистрация Запомнить меня
Войти через:  Facebook Google Twitter Vk Yandex Mail.ru

Matt Duke - Kingdom Underground - таба, видео

Печатать
Просмотров: 80
-------------------------------------------------------------------------------
                             SONG NAME - Band Name
-------------------------------------------------------------------------------
Tabbed by: Jonathan Kramarsky
E-mail: Jonkramarsky@gmail.com
========NOTE======
This is merely the notes and brief strumming and picking patterns. This song is best learned watching 
Matt and looking at the tab. try it slow at first, you will get it!
Tuning: D A D G B E
1st  part of verse
d|------------0--------------------------------------------------------- ----|
B|---------------------------------------------------------------------------|
G|---2--------------2-------5------------------------------------------------|
D|-0---0----------0---0------------------------------------------------------|
A|-------3/5------------3/5--------------------------------------------------|
D|--------------0-------------0----------------------------------------------|
2nd part of verse, shows up once in a while
d|---------------------------------------------------------------------------|
B|---------------------------------------------------------------------------|
G|---------------------------------------------------------------------------|
D|----10-10-10---10-10-10-----12-12-12---------------------------------------|
A|---------------------------------------------------------------------------|
D|--8----------7-----------10----------0-(continue with rhythm as above)-----|
    D  D U  U  D D  U  U   D   D  U  U  D
Chorus similar strumming as 2nd part of verse
d|---------------------------------------0------------------------- ---------|
B|---------------------------------------------------------------------------|
G|---2-2-2----2-2-2---4-4-4------2-------------2-------5---------------------|
D|-----------------------------0---0---------0---0----------(and repeat as needed|
A|-3---------------------------------3/5-----------3/5-----------------------|
D|---------4--------5--------0-------------0-------------0-------------------|
SOLO!!!!!! LISTEN TO THE SONG TO GET TIMING THIS IS JUST THE NOTES
d|-0--------------------------------------------------------------------------|
B|-0--------------------------------------------------------------------------|
G|-0---2-h3-p2---------2----2-h3-p2-------------------------------------------|
D|-0------------4---5---------------4---5--0----------------------------------|
A|-0--------------------------------------------------------------------------|
D|-0(carry this chord though out and kind of strum throuugh the solo with this chord|
2nd part of solo he starts singing during it too. also with heavy open struming
d|---------------------------------------------------------------------------|
B|---------------------------------------------------------------------------|
G|-------10-----9-----12----11------(repeat)---------------------------------|
D|-9/12-----12----10-----14----12--------------------------------------------|
A|---------------------------------------------------------------------------|
D|---------------------------------------------------------------------------|
After that solo you go back to chorus again. 
Have Fun! very difficult song!

************************************

| /   slide up
| \   slide down
| h   hammer-on
| p   pull-off
| ~   vibrato
| +   harmonic
| x   Mute note
| b   Bend
| pb  Pre-bend
| br  Bend release
| pbr Pre-bend release
| brb Bend release bend

************************************
Reign o'er with your fiery crown
Sordid kingdom underground
All of the guilty, all of the proud
Fill your kingdom underground

Father, please
Why have you forsaken me?
Father, please
What could I have done to thee?

Sweet reprisal's on the bound
All your armies gather 'round
Fervent cheering from the crowd
As he snakes up through the ground

Father, please
Spare me your mercy and let me be
Father, please
I'll get mine - just you wait and see

I wait for the seventh day
Rest and dream of what you've made
Evil hides amidst the shade
Evil keeps for evil changes

Father, please
Set your precious children free
Woman, please
I can give you what you need
All of the answers that you seek
Just pick that fruit right off that tree

Serpent, please
My father has forsaken me
But now, honey, my child - you're free!
To wallow in a fiery sea
To forfeit all of your life to me
To idle where the damned abound
In my kingdom underground
Добавлено: 01.08.2015
Другие материалы по этой песне:
  • Аккорды и текст

Страница создана 01.08.2015
http://primanota.ru/matt-duke/kingdom-underground-chords.htm
Привет, Гость.
Предлагаем пройти революционный курс по гитаре.
Подарок от PrimaNota.Ru, забирай!