PrimaNota.ru - самый крупный в мире бесплатный архив песенных текстов, аккордов, табулатур и нот


Matt Costa - Painted Face - таба, видео

Регистрация Запомнить меня
Войти через:  Facebook Google Twitter Vk Yandex Mail.ru

Matt Costa - Painted Face - таба, видео

Печатать
Просмотров: 86
Standard tuning
Capo on 6th fret

Intro (3x)

      Dm      C               Em
E||---1-------0----------------0------------0------------------------|
B||-----3-------1-----1-3--------0---0--------0---0------------------|
G||------------------------------------0------------0----------------|
D||---0---0-------2-------2----2-----2------2-----2------------------|
A||-----------3-------0------------2------------2--------------------|
E||--------------------------------------0------------0--------------|

Verses
      Dm     C      Dm     C      Dm     C      Em
E||---1------0------1------0------1------0------0-----------0-----------|
B||-----3------1------3------1------3------1------0---0-------0---0-----|
G||-----------------------------------------------------0-----------0---|
D||---0---0------2--0---0------2--0---0------2--2-----2-----2-----2-----|
A||----------3-------------3-------------3----------2-----------2-------|
E||-------------------------------------------------------0-----------0-|
        (1)Acrobatic                 women dancing,   dressed up horses,  hands clapping
        (1)Violins with             beating big drums, through comic curtains he runs
        (2)Walking with the    other clowns he   paints his skin to face the day
        (2)No one knows just what they're thinking smiles and frowns crumble away


      Dm      C                Em
E||---1-------0----------------0------------0------------------------|
B||-----3-------1-----1-3--------0---0--------0---0------------------|
G||------------------------------------0------------0----------------|
D||---0---0-------2-------2----2-----2------2-----2------------------|
A||-----------3-------0------------2------------2--------------------|
E||--------------------------------------0------------0--------------|
         (1)People laugh      at his    painted face
         (1)His cartwheels     leave people   amazed
         (2)There are two sides to a painted face
         (2)One side's real and one side's fake


The 'Oooh' part is just the same as the first part of the verses, except the Dm/C back 
forth is done 4 times instead of 3.

Bridge

E||-----0---------------0--------------------------------------------|
B||-------3-------3-------1-------1----------------------------------|
G||-----------2---------------2--------------------------------------|
D||---------3-------3-------2-------2--------------------------------|
A||-----0-------0-------0-------0------------------------------------|
E||------------------------------------------------------------------|
                  One cup to spill       and one cup to taste
                  One life to live         and one life to waste
                  One jump to fall      and one saving grace

       Em
E||----0--------------0--------------0-------------------------------|
B||------0-------0------0-------0------0-------0---------------------|
G||----------0--------------0--------------0-------------------------|
D||--------2-------2------2-------2------2-------2-------------------|
A||------------2--------------2--------------2-----------------------|
E||----0--------------0--------------0-------------------------------|
       One's a brick wall and one's                     the road...


              .....paved

and you basically just go back and play one iteration of the intro and a verse.  You 
be able to figure the rest out. ;)  Enjoy!!
Добавлено: 13.08.2013
Другие материалы по этой песне:
  • Аккорды и текст

Страница создана 13.08.2013
http://primanota.ru/matt-costa/painted-face-chords.htm
Привет, Гость.
Предлагаем пройти революционный курс по гитаре.
Подарок от PrimaNota.Ru, забирай!