PrimaNota.ru - самый крупный в мире бесплатный архив песенных текстов, аккордов, табулатур и нот


Matt Corby - Souls A Fire Full - таба, видео

Регистрация Запомнить меня
Войти через:  Facebook Google Twitter Vk Yandex Mail.ru

Matt Corby - Souls A Fire Full - таба, видео

Печатать
Просмотров: 121
hey guys this is my first tab so I really enjoyed playing this song and although
its not perfect its good a good tune to it!

B = C
AND
HIGH E = F
each go up 1 step!!

I apologize for my last upload I made a mistake with the tuning


INTRO
---------------------------------------|
------3--0----------0------------------|
------0--0-----3----------2h-----2b0---|
--------------------------0------0-----|
--3---------3----3---------------------|
--------------------------1------1-----|

----------------------------------------------------------------|
------3--0--------0---------------------------------------------|
------0--0-----3--------2h-----------------5b3------------------|
------------------------0---------------3h5---5b3---------------|
--3---------3----3----------------0h3h5-------------------------|
------------------------1---------------------------------------|

---------------------1b0-----------------|
------3----3-0---------------------------|
------0----0-0-----3-------2h-----2b0----|
---------------------------0-------------|
--3-----3-------3------------------------|
---------------------------1------1------|

--------------------------------|
------3--0----------0-----------|
------0--0-----3----------2h----|
--------------------------0-----|
--3---------3----3--------------|
--------------------------1-----|


chorus

C7              Bbsus2           Am7              F
66666666--------xxxxxxxx--------33333333---------xxxxxxxx------|
77777777--------55555555--------44444444---------xxxxxxxx------|
xxxxxxxx--------55555555--------xxxxxxxx---------22222222------|
xxxxxxxx--------55555555--------xxxxxxxx---------33333333------|
xxxxxxxx--------xxxxxxxx--------xxxxxxxx-----------------------|
88888888--------66666666--------55555555---------11111111------|



bridge

-----------------------------------------------------------------------------|
-----------3h0---------------------------3h0---------------------------------|
------------------3h0---------------------------3h0--------------------------|
--------------------------3h0-0------------------------3h0--0----------------|
---3--3---------3-------3----------------------------------------------------|
-----------------------------------1--1-------1------1-----------------------|

--------------------------------------|
----------3h0------------3h0----------|
----------------0--------------0------|
--------------------------------------|
-------------------1--1---------------|
----3--3------------------------------|


tab by Mike B                        enjoy!
Добавлено: 10.01.2014
Другие материалы по этой песне:
  • Аккорды и текст

Страница создана 10.01.2014
http://primanota.ru/matt-corby/souls-a-fire-full-chords.htm
Привет, Гость.
Предлагаем пройти революционный курс по гитаре.
Подарок от PrimaNota.Ru, забирай!