PrimaNota.ru - самый крупный в мире бесплатный архив песенных текстов, аккордов, табулатур и нот


Matt Corby - Kings Queens Beggars And Thieves - таба, видео

Регистрация Запомнить меня
Войти через:  Facebook Google Twitter Vk Yandex Mail.ru

Matt Corby - Kings Queens Beggars And Thieves - таба, видео

Печатать
Просмотров: 130
-------------------------------------------------------------------------------
               Kings, Queens, Beggars and Thieves - Matt Corby

Taken from this acoustic performance
http://www.youtube.com/watch?v=--0tNrZrbT8&feature=related. Watch the video to determine 
the right times for chord changes, pretty basic.
All chords can be either plucked or played openly with whatever strings you want.

Tabbed by: phil-verve

Tuning: Drop D

Song structure;
Intro
Verse
Chorus
Verse
Bridge
Chorus

Intro/Verse 1

Dreams,
They keep me awake
Like this song,
That is stuck in my brain
And it goes
"---|Dum-da-dum, da-dum, da-da-da-da-dum, da-dum, da-dum,
d---|a-dum, da-dum, dum, da-da-da, da-da-da-dum"

e|---------------------------------------------------------------------------|
B|---------------------------------------------------------------------------|
G|-------5-------------------------------------------------------------------|
D|-------7----------5-----------------4\2/4----------------------------------|
A|------------------7-----------------5\3/5----------------------------------|
E|---------------------------------------------------------------------------|


[Chorus]

So I stood in the heated halls and I played for the King and the Queen,
Oh I went out in the blistering cold and I played for the beggars and thieves

e|---------------------------------------------------------------------------|
B|-------6-------------------------------------------------------1-----------|
G|-------7-------------------------------------------------------2h0h2-------|
D|-------7-------------------------------------------------------2-----------|
A|-------5-------------------------------------------------------------------|
D|---------------------------------------------------------------------------|

I saw the pain in their eyes fade away as they listened to me

e|---------------------------------------------------------------------------|
B|-----1---------3-----------------------------------------------------------|
G|---------------------------------------------------------------------------|
D|-----2---------4-----------------------------------------------------------|
A|-----3---------------------------------------------------------------------|
D|---------------5-----------------------------------------------------------|
Oh I will carry that weight back home

e|---------------------------------------------------------------------------|
B|-----1---------------------------------------------------------------------|
G|---------------------------------------------------------------------------|
D|-----2---------------------------------------------------------------------|
A|---------------------------------------------------------------------------|
D|-----3---------------------------------------------------------------------|

[Verse 2] (played same as verse 1)

Dreams,
Oh listen to me
I'm so tired of this place
And I wanna be free

[Bridge]

And they say
"Oh don't you get it, You're never,
You're never going back home"
And they say
"Oh don't you get it,
There is more to life, there is more to life than I know"

e|---------------------------------------------------------------------------|
B|---------------------------------------------------------------------------|
G|------5---------7---------9-------------12----------11---------------------|
D|------7---------9---------10------------14----------12---------------------|
A|---------------------------------------------------------------------------|
D|---------------------------------------------------------------------------|

[Chorus 2]

************************************

| /   slide up
| \   slide down
| h   hammer-on
| p   pull-off
| ~   vibrato
| +   harmonic
| x   Mute note
| b   Bend
| pb  Pre-bend
| br  Bend release
| pbr Pre-bend release
| brb Bend release bend

************************************
Добавлено: 10.07.2013
Другие материалы по этой песне:
  • Аккорды и текст

Страница создана 10.07.2013
http://primanota.ru/matt-corby/kings-queens-beggars-and-thieves-chords.htm
Привет, Гость.
Предлагаем пройти революционный курс по гитаре.
Подарок от PrimaNota.Ru, забирай!