PrimaNota.ru - самый крупный в мире бесплатный архив песенных текстов, аккордов, табулатур и нот


Matt Charleston - Mooneyes - таба, видео

Регистрация Запомнить меня
Войти через:  Facebook Google Twitter Vk Yandex Mail.ru

Matt Charleston - Mooneyes - таба, видео

Печатать
Просмотров: 35
Новый альбом группы 'Черный Кузнец' по культовому сериалу 'Сверхъестественное'!
Written by Matt Charleston (2015)
Produced by MJC Productions Inc. (2015) - Reproduced in 2016.
Go to: https://soundcloud.com/matt_charleston_mjcproductionsinc/mooneyes-remastered to 
listen to this track...

[Intro]
e|-------------------4---6------------------------------------------------------|
B|---------------5--------------------------------------------------------------|
G|--------3-3---3---3-----------------------------------------------------------|
D|---5-0-1---0---------3----0--(Repeat 4 times)---------------------------------|
A|-3----------------------------------------------------------------------------|
E|------------------------------------------------------------------------------|

[Verse]
e|-------------------4---6------------------------------------------------------|
B|---------------5--------------------------------------------------------------|
G|--------3-3---3---3-----------------------------------------------------------|
D|--5--0-1---0---------3----0--(Repeat 8 times)---------------------------------|
A|-3----------------------------------------------------------------------------|
E|------------------------------------------------------------------------------|
(Every one has they're own ways....)
(Beliefs, religion, politics and facts...)

[Chorus]
e|-----------|-------------|------------------------------------------------------|
B|-----------|-------------|------------------------------------------------------|
G|---5----3-3|-------------|----5--------3-3-----7-7-7-7----(Repeat)--------------|
D|-3---0-1---|-0---3---3---|---3----0--1----1/5-5-5-5-----------------------------|
A|-----------|---1----1--1-|------------------------------------------------------|
E|-----------|-------------|------------------------------------------------------|
(Mooneyes, they have Mooneyes!....)

[Outro]
e|-------------------4---6------------------------------------------------------|
B|----------------5-------------------------------------------------------------|
G|--------3-3---3---3-----------------------------------------------------------|
D|---5-0-1---0---------3----0--(Repeat 4 times)---------------------------------|
A|-3----------------------------------------------------------------------------|
E|------------------------------------------------------------------------------|

************************************

| >   Accented note
| /   Slide up

************************************
Добавлено: 22.02.2018
Другие материалы по этой песне:
  • Аккорды и текст

Страница создана 22.02.2018
http://primanota.ru/matt-charleston/mooneyes-chords.htm
Привет, Гость.
Предлагаем пройти революционный курс по гитаре.
Подарок от PrimaNota.Ru, забирай!