PrimaNota.ru - самый крупный в мире бесплатный архив песенных текстов, аккордов, табулатур и нот


Matt Charleston - Evening Driving - таба, видео

Регистрация Запомнить меня
Войти через:  Facebook Google Twitter Vk Yandex Mail.ru

Matt Charleston - Evening Driving - таба, видео

Печатать
Просмотров: 38
Новый альбом группы 'Черный Кузнец' по культовому сериалу 'Сверхъестественное'!
Written by Matt Charleston (2016)
Produced by MJC Productions Inc. (2016)

'Evening Driving'

Lead Guitar:

[Intro]

e|---------------------------------------------------------------------------|
B|-----------12/14---14-12-------------------12/14---14-12-14-12-------------|
G|-9-h11-p9----------------13--16---9-h11-p9---------------------13-9\-------|
D|---------------------------------------------------------------------------|
A|---------------------------------------------------------------------------|
E|---------------------------------------------------------------------------|



[Verse 1+2+Rythm for Solo]
 C#min      C#min     E         E
e|-4-------|-4------|---------|--------|-------------------------------------------|
B|-5-------|-5------|---------|--------|-------------------------------------------|
G|-4-------|-4------|-1-------|-1------|---[x4]------------------------------------|
D|-6-------|-6------|-2-------|-2------|-------------------------------------------|
A|-4-------|-4------|-2-------|-2------|-------------------------------------------|
E|---------|--------|---------|--------|-------------------------------------------|

(Taking the car down the motor way on Route 83....)
(Taking the turn off, feel that your waiting for me....)

[Chorus]
  C#min    E       B        A
e|-4-----|-------|-7------|-5------|------------------------------------------------|
B|-5-----|-------|-7------|-5------|------------------------------------------------|
G|-4-----|-1-----|-8------|-6------|---[x4]-----------------------------------------|
D|-6-----|-2-----|-9------|-7------|------------------------------------------------|
A|-4-----|-2-----|-9------|-7------|------------------------------------------------|
E|-------|-----1/|-7------|-5------|------------------------------------------------|
(Ahh Evening Driving....)

[Solo]

e|-----------------------------------------------------------------------------|
B|-----------------b12---------------------------------------------------------|
G|-------9-b11-9-9-----11-9---------9b11-9---9---------------------------------|
D|-9h11-------------------------9h11-------11--------9h11-9--------------------|
A|--------------------------9h11----------------------------11-9h11------------|
E|------------------------------------------------------------------12---------|

e|-----------------------------------------------------------------------------|
B|-----------------------b12-9-------------------------------------------------|
G|-----b11-9------b11-9-------b11-9--b9-11-b11-9-----b11-9---b11-9---9---------|
D|-9h11-------9h11-----------------11-----------11--------11-------11----------|
A|-----------------------------------------------------------------------------|
E|-----------------------------------------------------------------------------|

e|---------------------------|--------------------------------------------------|
B|---------------------------|--------------------------------------------------|
G|-----9hb11---------b11-9---|--------------------------------------------------|
D|-9h11----------9h11-----11-|--------------------------------------------------|
A|-----------9h11------------|--------------------------------------------------|
E|---------------------------|--------------------------------------------------|

************************************

| h   Hammer-on
| p   Pull-off
| b   Bend

************************************
Добавлено: 22.02.2018
Другие материалы по этой песне:
  • Аккорды и текст

Страница создана 22.02.2018
http://primanota.ru/matt-charleston/evening-driving-chords.htm
Привет, Гость.
Предлагаем пройти революционный курс по гитаре.
Подарок от PrimaNota.Ru, забирай!