PrimaNota.ru - самый крупный в мире бесплатный архив песенных текстов, аккордов, табулатур и нот


Matisyahu - Obstacles - таба, видео

Регистрация Запомнить меня
Войти через:  Facebook Google Twitter Vk Yandex Mail.ru

Matisyahu - Obstacles - таба, видео

Печатать
Просмотров: 159
Matisyahu - Obstacles(performs an acoustic set at Camp Solomon Schechter 8/12/12)




CHORUS


E1|-----------0-----------0------------0-------------------------------0---------0----------0-------|
H2|-----13------13----------8-----12-----12------7------10--------8------8---------5----7-----7--7-7|
G3|---------0-----------0------------0-------------0------0----------0---------0----------0----0-0--|
D4|-------------------------------------------------------------------------------------------------|
A5|--12---------------7---------10---------------5-------9------7------------3--------5-------------|
E6|-------------------------------------------------------------------------------------------------|



E1|-----------0-----------0------------0-------------------------------0---------0----------0------|
H2|-----13------13----------8-----12-----12------7------10--------8------8---------5----7-----7---7|
G3|---------0-----------0------------0-------------0------0----------0---------0----------0--------|
D4|------------------------------------------------------------------------------------------------|
A5|--12---------------7---------10---------------5-------9------7------------3--------5-----------5|
E6|------------------------------------------------------------------------------------------------|





E1|--0--0----0--0----0--0----0--0--0---0-0-0---0-0-0----0--0--0----0--0--0-------|
H2|--8--8----5--5----3--3----8--8--8---5-5-5---3-3-3---12-12-12---10-10-10-------|
G3|--0--0----0--0----0--0----0--0--0---0-0-0---0-0-0----0--0--0----0--0--0-------|
D4|--0--0----0--0----0--0----0--0--0---0-0-0---0-0-0----0--0--0----0--0--0-------|
A5|--7--7----3--3----2--2----7--7--7---3-3-3---2-2-2---10-10-10----9--9--9-------|
E6|--x--x----x--x----x--x----x--x--x---x-x-x---x-x-x----x--x--x----x--x--x-------|



E1|--0-0-0---0-0-0----0-0-0----0-0-0----0-0-0---0-0-0----0--0--0--0--0--0--0----0--0--0--0--0--0--0|
H2|--8-8-8---5-5-5----3-3-3----8-8-8----5-5-5---3-3-3---12-12-12-12-12-12-12---10-10-10-10-10-10-10|
G3|--0-0-0---0-0-0----0-0-0----0-0-0----0-0-0---0-0-0----0--0--0--0--0--0--0----0--0--0--0--0--0--0|
D4|--0-0-0---0-0-0----0-0-0----0-0-0----0-0-0---0-0-0----0--0--0--0--0--0--0----0--0--0--0--0--0--0|
A5|--7-7-7---3-3-3----2-2-2----7-7-7----3-3-3---2-2-2---10-10-10-10-10-10-10----9--9--9--9--9--9--9|
E6|--x-x-x---x-x-x----x-x-x----x-x-x----x-x-x---x-x-x----x--x--x--x--x--x--x----x--x--x--x--x--x--x|




E1|-0-0-0-0-0-0-0---0-0-0-0-0-0-0---0-0-0-0-0-0-0---0-0-0-0-0-0-0---0-0-0-0-0-0-0---0-0-0-0-0-0-0--|
H2|-8-8-8-8-8-8-8---5-5-5-5-5-5-5---3-3-3-3-3-3-3---8-8-8-8-8-8-8---5-5-5-5-5-5-5---3-3-3-3-3-3-3--|
G3|-0-0-0-0-0-0-0---0-0-0-0-0-0-0---0-0-0-0-0-0-0---0-0-0-0-0-0-0---0-0-0-0-0-0-0---0-0-0-0-0-0-0--|
D4|-0-0-0-0-0-0-0---0-0-0-0-0-0-0---0-0-0-0-0-0-0---0-0-0-0-0-0-0---0-0-0-0-0-0-0---0-0-0-0-0-0-0--|
A5|-7-7-7-7-7-7-7---3-3-3-3-3-3-3---2-2-2-2-2-2-2---7-7-7-7-7-7-7---3-3-3-3-3-3-3---2-2-2-2-2-2-2--|
E6|-x-x-x-x-x-x-x---x-x-x-x-x-x-x---x-x-x-x-x-x-x---x-x-x-x-x-x-x---x-x-x-x-x-x-x---x-x-x-x-x-x-x--|



-0--0--0--0--0--0--0---0--0--0--0--0--0--0----|
12-12-12-12-12-12-12--10-10-10-10-10-10-10----|
-0--0--0--0--0--0--0---0--0--0--0--0--0--0----|
-0--0--0--0--0--0--0---0--0--0--0--0--0--0----|
10-10-10-10-10-10-10---9--9--9--9--9--9--9----|
-x--x--x--x--x--x--x---x--x--x--x--x--x--x----|



CHORUS


E1|---0---0--0----0---0-0----0---0--0----0--0----0--0----0---0-0----0---0-0----0---0-0--0-0-0------|
H2|--13--13-13----8---8-8---12--12-12----7--7---10-10----8---8-8----5---5-5----7---7-7--7-7-7------|
G3|---0---0--0----0---0-0----0---0--0----0--0----0--0----0---0-0----0---0-0----0---0-0--0-0-0------|
D4|---0---0--0----0---0-0----0---0--0----0--0----0--0----0---0-0----0---0-0----0---0-0--0-0-0------|
A5|--12--12-12----7---7-7---10--10-10----5--5----9--9----7---7-7----3---3-3----5---5-5--5-5-5------|
E6|---x---x--x----x---x-x----x---x--x----x--x----x--x----x---x-x----x---x-x----x---x-x--x-x-x------|



E1|---0---0--0----0---0-0----0---0--0----0--0----0--0----0---0-0----0---0-0----0---0-0--0--0-------|
H2|--13--13-13----8---8-8---12--12-12----7--7---10-10----8---8-8----5---5-5----7---7-7--7--7-------|
G3|---0---0--0----0---0-0----0---0--0----0--0----0--0----0---0-0----0---0-0----0---0-0--0--0-------|
D4|---0---0--0----0---0-0----0---0--0----0--0----0--0----0---0-0----0---0-0----0---0-0--0--0-------|
A5|--12--12-12----7---7-7---10--10-10----5--5----9--9----7---7-7----3---3-3----5---5-5--5--5-------|
E6|---x---x--x----x---x-x----x---x--x----x--x----x--x----x---x-x----x---x-x----x---x-x--x--x-------|



E1|-0--0--0--0--0-0-0--0-0-0---0--0--0---0--0--0--0-0-0-0-0-0-0--0-0-0-0-0-0-0--0-0-0-0-0-0-0--|
H2|-8--5--3--8--5-5-5--3-3-3--12-12-12--10-10-10--8-8-8-8-8-8-8--5-5-5-5-5-5-5--3-3-3-3-3-3-3--|
G3|-0--0--0--0--0-0-0--0-0-0---0--0--0---0--0--0--0-0-0-0-0-0-0--0-0-0-0-0-0-0--0-0-0-0-0-0-0--|
D4|-0--0--0--0--0-0-0--0-0-0---0--0--0---0--0--0--0-0-0-0-0-0-0--0-0-0-0-0-0-0--0-0-0-0-0-0-0--|
A5|-7--3--2--7--3-3-3--2-2-2--10-10-10---9--9--9--7-7-7-7-7-7-7--3-3-3-3-3-3-3--2-2-2-2-2-2-2--|
E6|-x--x--x--x--x-x-x--x-x-x---x--x--x---x--x--x--x-x-x-x-x-x-x--x-x-x-x-x-x-x--x-x-x-x-x-x-x--|


-0-0-0-0-0-0-0--0-0-0-0-0-0-0--0-0-0-0-0-0-0---0--0--0--0--0--0--0---0--0--0--0--0--0--0-|
-8-8-8-8-8-8-8--5-5-5-5-5-5-5--3-3-3-3-3-3-3--12-12-12-12-12-12-12--10-10-10-10-10-10-10-|
-0-0-0-0-0-0-0--0-0-0-0-0-0-0--0-0-0-0-0-0-0---0--0--0--0--0--0--0---0--0--0--0--0--0--0-|
-0-0-0-0-0-0-0--0-0-0-0-0-0-0--0-0-0-0-0-0-0---0--0--0--0--0--0--0---0--0--0--0--0--0--0-|
-7-7-7-7-7-7-7--3-3-3-3-3-3-3--2-2-2-2-2-2-2--10-10-10-10-10-10-10---9--9--9--9--9--9--9-|
-x-x-x-x-x-x-x--x-x-x-x-x-x-x--x-x-x-x-x-x-x---x--x--x--x--x--x--x---x--x--x--x--x--x--x-|





E1|-0-0-0-0-0-0-0---0-0-0-0-0-0-0---0-0-0-0-0-0-0---0-0-0-0-0-0-0---0-0-0-0-0-0-0---0-0-0-0-0-0-0--|
H2|-8-8-8-8-8-8-8---5-5-5-5-5-5-5---3-3-3-3-3-3-3---8-8-8-8-8-8-8---5-5-5-5-5-5-5---3-3-3-3-3-3-3--|
G3|-0-0-0-0-0-0-0---0-0-0-0-0-0-0---0-0-0-0-0-0-0---0-0-0-0-0-0-0---0-0-0-0-0-0-0---0-0-0-0-0-0-0--|
D4|-0-0-0-0-0-0-0---0-0-0-0-0-0-0---0-0-0-0-0-0-0---0-0-0-0-0-0-0---0-0-0-0-0-0-0---0-0-0-0-0-0-0--|
A5|-7-7-7-7-7-7-7---3-3-3-3-3-3-3---2-2-2-2-2-2-2---7-7-7-7-7-7-7---3-3-3-3-3-3-3---2-2-2-2-2-2-2--|
E6|-x-x-x-x-x-x-x---x-x-x-x-x-x-x---x-x-x-x-x-x-x---x-x-x-x-x-x-x---x-x-x-x-x-x-x---x-x-x-x-x-x-x--|




-0--0--0--0--0--0--0---0--0--0--0--0--0--0----|
12-12-12-12-12-12-12--10-10-10-10-10-10-10----|
-0--0--0--0--0--0--0---0--0--0--0--0--0--0----|
-0--0--0--0--0--0--0---0--0--0--0--0--0--0----|
10-10-10-10-10-10-10---9--9--9--9--9--9--9----|
-x--x--x--x--x--x--x---x--x--x--x--x--x--x----|




CHORUS


E1|---0---0--0----0---0-0----0---0--0----0--0----0--0----0---0-0----0---0-0----0---0-0--0-0-0----|
H2|--13--13-13----8---8-8---12--12-12----7--7---10-10----8---8-8----5---5-5----7---7-7--7-7-7----|
G3|---0---0--0----0---0-0----0---0--0----0--0----0--0----0---0-0----0---0-0----0---0-0--0-0-0----|
D4|---0---0--0----0---0-0----0---0--0----0--0----0--0----0---0-0----0---0-0----0---0-0--0-0-0----|
A5|--12--12-12----7---7-7---10--10-10----5--5----9--9----7---7-7----3---3-3----5---5-5--5-5-5----|
E6|---x---x--x----x---x-x----x---x--x----x--x----x--x----x---x-x----x---x-x----x---x-x--x-x-x----|



E1|---0---0--0----0---0-0----0---0--0----0--0----0--0----0---0-0----0---0-0----0---0-0--0--------|
H2|--13--13-13----8---8-8---12--12-12----7--7---10-10----8---8-8----5---5-5----7---7-7--7--------|
G3|---0---0--0----0---0-0----0---0--0----0--0----0--0----0---0-0----0---0-0----0---0-0--0--------|
D4|---0---0--0----0---0-0----0---0--0----0--0----0--0----0---0-0----0---0-0----0---0-0--0--------|
A5|--12--12-12----7---7-7---10--10-10----5--5----9--9----7---7-7----3---3-3----5---5-5--5--------|
E6|---x---x--x----x---x-x----x---x--x----x--x----x--x----x---x-x----x---x-x----x---x-x--x--------|




E1|------------0-----------0-------------0--------0--------------0-----------0-------------0--|
H2|------3-------3----------5------7------7--------8-------3-------3----------5------7------7-|
G3|----------0-----------0-------------0--------0--------------0-----------0-------------0----|
D4|-------------------------------------------------------------------------------------------|
A5|---2---------------3----------5-----------7----------2---------------3----------5----------|
E6|-------------------------------------------------------------------------------------------|

------7----|
-------8---|
----0------|
-----------|
-7---------|
-----------|






E1|------------0-----------0-----0--0--0--0-0-0-0-0-0-0---0-0-0-0-0-0-0---0-0-0-0-0-0-0--|
H2|------3-------3----------5----7--7--7--8-8-8-8-8-8-8---3-3-3-3-3-3-3---5-5-5-5-5-5-5--|
G3|----------0-----------0-------0--0--0--0-0-0-0-0-0-0---0-0-0-0-0-0-0---0-0-0-0-0-0-0--|
D4|------------------------------0--0--0--0-0-0-0-0-0-0---0-0-0-0-0-0-0---0-0-0-0-0-0-0--|
A5|---2---------------3----------5--5--5--7-7-7-7-7-7-7---7-7-7-7-7-7-7---3-3-3-3-3-3-3--|
E6|------------------------------x--x--x--x-x-x-x-x-x-x---x-x-x-x-x-x-x---x-x-x-x-x-x-x--|


-0-0-0-0-0-0-0----0--0--0--0--0--0--0---|
-7-7-7-7-7-7-7---12-12-12-12-12-12-12---|
-0-0-0-0-0-0-0----0--0--0--0--0--0--0---|
-0-0-0-0-0-0-0----0--0--0--0--0--0--0---|
-5-5-5-5-5-5-5---10-10-10-10-10-10-10---|
-x-x-x-x-x-x-x----x--x--x--x--x--x--x---|



CHORUS

E1|---0---0--0----0---0-0----0---0--0----0--0----0--0----0---0-0----0---0-0----0---0-0--0-0-0---|
H2|--13--13-13----8---8-8---12--12-12----7--7---10-10----8---8-8----5---5-5----7---7-7--7-7-7---|
G3|---0---0--0----0---0-0----0---0--0----0--0----0--0----0---0-0----0---0-0----0---0-0--0-0-0---|
D4|---0---0--0----0---0-0----0---0--0----0--0----0--0----0---0-0----0---0-0----0---0-0--0-0-0---|
A5|--12--12-12----7---7-7---10--10-10----5--5----9--9----7---7-7----3---3-3----5---5-5--5-5-5---|
E6|---x---x--x----x---x-x----x---x--x----x--x----x--x----x---x-x----x---x-x----x---x-x--x-x-x---|




E1|---0---0--0----0---0-0----0---0--0----0--0----0--0----0---0-0----0---0-0----0---0-0--0--------|
H2|--13--13-13----8---8-8---12--12-12----7--7---10-10----8---8-8----5---5-5----7---7-7--7--------|
G3|---0---0--0----0---0-0----0---0--0----0--0----0--0----0---0-0----0---0-0----0---0-0--0--------|
D4|---0---0--0----0---0-0----0---0--0----0--0----0--0----0---0-0----0---0-0----0---0-0--0--------|
A5|--12--12-12----7---7-7---10--10-10----5--5----9--9----7---7-7----3---3-3----5---5-5--5--------|
E6|---x---x--x----x---x-x----x---x--x----x--x----x--x----x---x-x----x---x-x----x---x-x--x--------|





E1|-----------0-----------0------------0-------------------------------0----|
H2|-----13------13----------8-----12-----12------7------10--------8------8--|
G3|---------0-----------0------------0-------------0------0----------0------|
D4|-------------------------------------------------------------------------|
A5|--12---------------7---------10---------------5-------9------7-----------|
E6|-------------------------------------------------------------------------|

-----0----------0----------0--------|
-------5----7-----7---7------7--8---|
---0----------0----------0----------|
------------------------------------|
-3--------5-----------5---------7---|
------------------------------------|


-------0--------|
--7------7--8---|
-----0----------|
----------------|
--5---------7---|
----------------|
Добавлено: 09.07.2013
Другие материалы по этой песне:
  • Аккорды и текст

Страница создана 09.07.2013
http://primanota.ru/matisyahu/obstacles-chords.htm
Привет, Гость.
Предлагаем пройти революционный курс по гитаре.
Подарок от PrimaNota.Ru, забирай!