PrimaNota.ru - самый крупный в мире бесплатный архив песенных текстов, аккордов, табулатур и нот


Matisyahu - Fire Of Heavenalter On Earth - таба, видео

Регистрация Запомнить меня
Войти через:  Facebook Google Twitter Vk Yandex Mail.ru

Matisyahu - Fire Of Heavenalter On Earth - таба, видео

Печатать
Просмотров: 163
Уроки эстрадного вокала в Санкт-Петербурге
MATISYAHU
Fire of Heaven/Alter on Earth
Tab by: Adam W (www.adamweinbergmusic.com)


INTRO

Bmin          AMaj        GMaj        AMaj
--7--7--7--7--5--5--5--5--3--3--3--3--5--5--5--5---|
--7--7--7--7--5--5--5--5--3--3--3--3--5--5--5--5---|
--7--7--7--7--6--6--6--6--4--4--4--4--6--6--6--6---|
--9--9--9--9--7--7--7--7--5--5--5--5--7--7--7--7---|
--9--9--9--9--7--7--7--7--5--5--5--5--7--7--7--7---|
---------------------------------------------------|


CHORUS

--------------------------------------------------------------------------------------------------|
--------------------------------------------------------------------------------------------------|
--------------------------------------------------------------------------------------------------|
--4h5p4------4------------7-----------------------4h5p4------4----------7-------------7-7---------|
--------5------5--------7---------5----------7----------5------5------7--------5----------7-7-----|
----------7------7-5---------3-3------5-5-5---------------7------7-5-------3-3----5-5----------5--|
repeat 4X


VERSE-Part1

Bmin                       GMaj
--7/----------12-12--9-9------------------12-12-12---------|
--7/---10-10-----------------8/-10-10-10-------------------|
--7/-------------------------7/----------------------------|(Repeat 4X)
--9/-------------------------9/----------------------------|
--9/------------------------10/----------------------------|
-----------------------------------------------------------|


VERSE-Part2

GMaj                  AMaj                Bmin               AMaj   AMaj  AMaj
--3----3----3----3----5----5----5----5----7----7----7----7-------------------|
--3----3----3----3----5----5----5----5----7----7----7----7----10----2-----5--|
--4----4----4----4----6----6----6----6----7----7----7----7----9-----2-----6--|(Repeat 2X)
--5----5----5----5----7----7----7----7----9----9----9----9----11----2-----7--|
--5----5----5----5----7----7----7----7----9----9----9----9----------------7--|
-----------------------------------------------------------------------------|


BRIDGE (picked in triplets)

GMaj                            AMaj                           Bmin
-3-----3-----3-----3-----3------5-----5-----5-----5-----5------7-----7-----7-----7-----7-------|
---3-----3-----3-----3-----3------5-----5-----5-----5-----5------7-----7-----7-----7-----7-----|
-----4-----4-----4-----4-----4------6-----6-----6-----6-----6------7-----7-----7-----7-----7---|
-----------------------------------------------------------------------------------------------|
-----------------------------------------------------------------------------------------------|
-----------------------------------------------------------------------------------------------|

AMaj                                  GMaj
--9------9------9------9------9-------10-------10-------10-------10-------10--------------|
----10-----10-----10-----10-----10-------12-------12-------12-------12-------12-----------|
-------9------9------9------9------9--------12-------12-------12-------12-------12--------|
------------------------------------------------------------------------------------------|
------------------------------------------------------------------------------------------|
------------------------------------------------------------------------------------------|

Emin                                            F#min        F#min
--12-------12-------12-------12-------12--------14--/--/--/--14--/--/----------------|
-----12-------12-------12-------12-------12-----14--/--/--/--14--/--/--8-7-----------|
--------12-------12-------12-------12-------12--14--/--/--/--14--/--/--------9--7----|
------------------------------------------------16--/--/--/--16--/--/----------------|
-------------------------------------------------------------------------------------|
-------------------------------------------------------------------------------------|

ORDER OF SONG

1.  INTRO
2.  CHORUS
3.  VERSE-Part1
4.  VERSE-Part2
5.  CHORUS
6.  VERSE-Part1
7.  VERSE-Part2
8.  BRIDGE
9.  CHORUS
10.  INTRO (progression played as 'DUBWISE')
11. VERSE-Part2
Добавлено: 04.11.2013
Другие материалы по этой песне:
  • Аккорды и текст

Страница создана 04.11.2013
http://primanota.ru/matisyahu/fire-of-heavenalter-on-earth-chords.htm
Привет, Гость.
Предлагаем пройти революционный курс по гитаре.
Подарок от PrimaNota.Ru, забирай!