PrimaNota.ru - самый крупный в мире бесплатный архив песенных текстов, аккордов, табулатур и нот


Math Jokes - Cry Bender Or Lover Bender Depending On Who You Ask - таба, видео

Регистрация Запомнить меня
Войти через:  Facebook Google Twitter Vk Yandex Mail.ru

Math Jokes - Cry Bender Or Lover Bender Depending On Who You Ask - таба, видео

Печатать
Просмотров: 37
-------------------------------------------------------------------------------
             CRY BENDER OR LOVE BENDER, DEPENDING ON WHO YOU ASK
                                  math jokes
-------------------------------------------------------------------------------
Tabbed by: math jokes
E-mail: mathjokesnw@gmail.com

strangely enough we have gotten a few people asking us to tab out this track so
we decided to do it. we might tab out a few others if anyone wants them. If you
need any additional info you can contact us at our email address above.
thanks for the support and interest!

SOCIAL MEDIA:
http://mathjokesnw.tumblr.com/

MUSIC STREAM:
http://mathjokesnw.bandcamp.com/

||  Tuning: DAEAC#e (Open A add 4)  ||  Time Signature: 4/4  ||  175 BPM  ||

  VERSE 1:
e |--------------------------------------------------------------5------------|
C#|------0-0-0-0-----0-0-0-0-----0-0-----0-0-0-0-----------5/7-0-3------------|
A |------2-2-2-2-----2-2-2-2-----2-2-----2h4-4-4-----5p4p0--------------------|
E |------0-0-0-0-----0-0-0-0-----0-0-----0-0-0-0------------------------------|
A |--0-0-4-4-4-4-0-0-4-4-4-4-0-0-4-4-0-0--------------------------------------|
D |--0-0---------0-0---------0-0-----0-0--------------------------------------|
     x x         x x         x x     x x

e |---------------------------------------------------------------------------|
C#|------0-0-0-0-----0-0-0-0-----0-0-----0-0-0-0------------------------------|
A |------2-2-2-2-----2-2-2-2-----2-2-----2h4-4-4-----4-2-0--------------------|
E |------0-0-0-0-----0-0-0-0-----0-0-----0-0-0-0-----------4/5-0--------------|
A |--0-0-4-4-4-4-0-0-4-4-4-4-0-0-4-4-0-0-------------------------0------------|
D |--0-0---------0-0---------0-0-----0-0--------------------------------------|
     x x         x x         x x     x x

e |--------------------------------------------------------------5------------|
C#|------0-0-0-0-----0-0-0-0-----0-0-----0-0-0-0-----------5/7-0-3------------|
A |------2-2-2-2-----2-2-2-2-----2-2-----2h4-4-4-----5p4p0--------------------|
E |------0-0-0-0-----0-0-0-0-----0-0-----0-0-0-0------------------------------|
A |--0-0-4-4-4-4-0-0-4-4-4-4-0-0-4-4-0-0--------------------------------------|
D |--0-0---------0-0---------0-0-----0-0--------------------------------------|
     x x         x x         x x     x x

e |---------------------------------------------------------------------------|
C#|------0-0-0-0-----0-0-0-0-----0-0-----0-0-0-0------------------------------|
A |------2-2-2-2-----2-2-2-2-----2-2-----2h4-4-4-----4h5p4p0h2p0--------------|
E |------0-0-0-0-----0-0-0-0-----0-0-----0-0-0-0-----------------4h5----------|
A |--0-0-4-4-4-4-0-0-4-4-4-4-0-0-4-4-0-0-----------------------------4\2------|
D |--0-0---------0-0---------0-0-----0-0--------------------------------------|
     x x         x x         x x     x x

  PRE-CHORUS:
e |---------------------------------------------------------------------------|
C#|---------------------------------------------------------------------------|
A |----------9---7---12-12-12-12-------------9/12---7---2/4\2-----------------|
E |----------x---x---------------------------x-x----x-------------------------| (x2)
A |--0-0-0-0-9-0-7-0-12-12-12-12-----0-0-0-0-9/12-0-7-0-2/4\2-----------------|
D |--0-0-0-0---0---0-----------------0-0-0-0------0---0-----------------------|

  CHORUS:
e |-----------------5h7p5-------------------------19p0---17p0---12/14\12------|
C#|-----------------------0-7-8------------------------0------0---------------|
A |--4*----2*----0*-------------------4*----2*----0*--------------------------|
E |--0*----0*----0*-------------------0*----0*----0*--------------------------| (x2)
A |--0*----0*----0*-------------------0*----0*----0*--------------------------|
D |--4*----2*----0*-------------------4*----2*----0*--------------------------|

  COMING INTO VERSE 2:
e |---------------------------------------------------------------------------|
C#|---------------------------------------------------------------------------|
A |---------------------------------------------------------------------------|
E |---------------------------------------------------------------------------|
A |-----------------------------------------------------------0-0-0-0-0-0-0-0-|
D |-----------------------------------------------------------0-0-0-0-0-0-0-0-|
                                                              x x x x x x x x
  VERSE 2:
e |---------------------------------------------------------------------------|
C#|------0-0-0-0-----0-0-0-0-----0-0-----0-0-0-0------------------------------|
A |------2-2-2-2-----2-2-2-2-----2-2-----2h4-4-4-----4h5p4p0h2p0--------------|
E |------0-0-0-0-----0-0-0-0-----0-0-----0-0-0-0-----------------4h5----------|
A |--0-0-4-4-4-4-0-0-4-4-4-4-0-0-4-4-0-0-----------------------------4\2------|
D |--0-0---------0-0---------0-0-----0-0--------------------------------------|
     x x         x x         x x     x x

e |---------------------------------------------------------------------------|
C#|------0-0-0-0-----0-0-0-0-----0-0-----0-0-0-0------------------------------|
A |------2-2-2-2-----2-2-2-2-----2-2-----2h4-4-4-----4-2-0--------------------|
E |------0-0-0-0-----0-0-0-0-----0-0-----0-0-0-0-----------4/5-0--------------|
A |--0-0-4-4-4-4-0-0-4-4-4-4-0-0-4-4-0-0-------------------------0------------|
D |--0-0---------0-0---------0-0-----0-0--------------------------------------|
     x x         x x         x x     x x

e |--------------------------------------------------------------5------------|
C#|------0-0-0-0-----0-0-0-0-----0-0-----0-0-0-0-----------5/7-0-3------------|
A |------2-2-2-2-----2-2-2-2-----2-2-----2h4-4-4-----5p4p0--------------------|
E |------0-0-0-0-----0-0-0-0-----0-0-----0-0-0-0------------------------------|
A |--0-0-4-4-4-4-0-0-4-4-4-4-0-0-4-4-0-0--------------------------------------|
D |--0-0---------0-0---------0-0-----0-0--------------------------------------|
     x x         x x         x x     x x

e |--------------------------------------------------------------5------------|
C#|------0-0-0-0-----0-0-0-0-----0-0-----0-0-0-0-----------5/7-0-3------------|
A |------2-2-2-2-----2-2-2-2-----2-2-----2h4-4-4-----5p4p0--------------------|
E |------0-0-0-0-----0-0-0-0-----0-0-----0-0-0-0------------------------------|
A |--0-0-4-4-4-4-0-0-4-4-4-4-0-0-4-4-0-0--------------------------------------|
D |--0-0---------0-0---------0-0-----0-0--------------------------------------|
     x x         x x         x x     x x

  BRIDGE:
e |---------------------------------------------------------------------------|
C#|---------------------------------------------------------------------------|
A |------2-2-2-2-----2-2-2-2-----2-2-----2-2-2-2-----2-2-2-2-2*---------------|
E |------4-4-4-4-----4-4-4-4-----4-4-----3-3-3-3-----3-3-3-0-0*---------------| (x4)
A |--0-0-4-4-4-4-0-0-4-4-4-4-0-0-4-4-0-0-3-3-3-3-0-0-3-3-3-0-0*---------------|
D |--0-0---------0-0---------0-0-----0-0---------0-0--------------------------|
     x x         x x         x x     x x         x x

  OUTRO:
e |---------------------------------------------------------------------------|
C#|---------------------------------------------------------------------------|
A |--4*----2*----0*----4*----2*----0*----4-4-4-4-4/7-7-7/9-9-9-9-9-7-7-7------|
E |--0*----0*----0*----0*----0*----0*----0-0-0-0-0-0-0-0-0-0-0-0-0-0-0-0------|
A |--0*----0*----0*----0*----0*----0*----0-0-0-0-0-0-0-0-0-0-0-0-0-0-0-0------|
D |--4*----2*----0*----4*----2*----0*----4-4-4-4-4/7-7-7----------------------|

e |----------------------------------|
C#|----------------------------------|
A |--4-4-4-4-4\2-2-2-0-0-0-0-0-0-0-0-|
E |--0-0-0-0-0-0-0-0-0-0-0-0-0-0-0-0-| (x2)
A |--0-0-0-0-0-0-0-0-0-0-0-0-0-0-0-0-|
D |--4-4-4-4-4\2-2-2-0-0-0-0-0-0-0-0-|

e |---------------------------------------------------------------------------|
C#|---------------------------------------------------------------------------|
A |--4-4-4-4-4/7-7-7-7/9-9-9-9/11-11-11-11/12-12-12-12/14-14-14-14------------|
E |--0-0-0-0-0-0-0-0-0-0-0-0-0-0--0--0--0--0--0--0--0--0--0--0--0-------------|
A |--0-0-0-0-0-0-0-0-0-0-0-0-0-0--0--0--0--0--0--0--0--0--0--0--0-------------|
D |--4-4-4-4-4/7-7-7----------------------------------------------------------|

e |--------------------------------|
C#|--------------------------------|
A |--4-4-4-4/7-7-7/9-9-9-9-9p7-7-7-|
E |--0-0-0-0-0-0-0-0-0-0-0-0-0-0-0-| (x2)
A |--0-0-0-0-0-0-0-0-0-0-0-0-0-0-0-|
D |--4-4-4-4/7-7-7-----------------|

  END ON:
e |-----------------|
C#|-----------------|
A |--4*----2*----0*-|
E |--0*----0*----0*-|
A |--0*----0*----0*-|
D |--4*----2*----0*-|

************************************

| /   slide up
| \   slide down
| h   hammer-on
| *   let ring-out
| p   pull-off
| ~   vibrato
| +   harmonic
| x   Mute note
| b   Bend
| pb  Pre-bend
| br  Bend release
| pbr Pre-bend release
| brb Bend release bend

************************************
Добавлено: 22.12.2015
Другие материалы по этой песне:
  • Аккорды и текст

Страница создана 22.12.2015
http://primanota.ru/math-jokes/cry-bender-or-lover-bender-depending-on-who-you-ask-chords.htm
Привет, Гость.
Предлагаем пройти революционный курс по гитаре.
Подарок от PrimaNota.Ru, забирай!