PrimaNota.ru - самый крупный в мире бесплатный архив песенных текстов, аккордов, табулатур и нот


Material Issue - Very First Lie - аккорды и текст, таба, бас-таба, видео

Регистрация Запомнить меня
Войти через:  Facebook Google Twitter Vk Yandex Mail.ru

Material Issue - Very First Lie - аккорды и текст, таба, бас-таба, видео

Печатать
Просмотров: 172
Very First Lie
Material Issue


From: bheim@jhunix.hcf.jhu.edu (Bradley Thomas Heim)
Subject: CRD: Very First Lie by Material Issue

I just figured this one out.  I'm not sure about the solo, but it's 
close.  Anyway, enjoy 

Very First Lie by Material Issue
Album: International Pop Overthrow
Transcribed by Brad Heim 

Note: In general, the C and Am chords are played normal first, then 
changed by bringing the pinky up to the fourth fret, then playing
the normal chord, then releasing the pointer finger.I don't know the 
names of these chords, but if you listen to the album, you'll see what I 
mean.
 
Intro: C  Am C Am

C
I'd..
Am
Or ..
C
I'd ..
Am
Maybe ..
Dm		     G	
And I..

C Am C Am

C
I'd ..
Am
Maybe ..
C
I'd ..
Am
We ..
Dm		     G
And..

Solo:
Riff 1:
e---------0-1-0-1-3-1-0-------------------0-1-0-1-3-1-0-------------------
B---0-1-3---------------3-1-0-------0-1-3---------------3-1-0---0---------
G-2---------------------------2-0-2---------------------------2-----------
D-------------------------------------------------------------------------

Riff 2:
e-------------------------------------------------------------------------
B-1-0-----------0---------------------------------------------------------
G-----2-0---0-2-----------------------------------------------------------
D---------2---------------------------------------------------------------

(Play Riff 1, then Riff 2 4x, then Riff 1, then Riff 2 4x)

Dm
I'd ..
C
Maybe ..
Dm				C				    G	
I'd ..

C
I'd ..
Am
Or stay ..
C
I'd ..
Am
Mayb..
Dm		     G
And ..

Repeat solo


Any corrections or comments welcome.
Brad 


Добавлено: 16.11.2013
Другие материалы по этой песне:
  • Аккорды и текст

Страница создана 15.04.2012
http://primanota.ru/material-issue/very-first-lie-chords.htm
Привет, Гость.
Предлагаем пройти революционный курс по гитаре.
Подарок от PrimaNota.Ru, забирай!