PrimaNota.ru - самый крупный в мире бесплатный архив песенных текстов, аккордов, табулатур и нот


Materia - B17 - таба, видео

Регистрация Запомнить меня
Войти через:  Facebook Google Twitter Vk Yandex Mail.ru

Materia - B17 - таба, видео

Печатать
Просмотров: 84
B |-------------------------------------------------------------------|
F#|-----15--15--15----------------------------------------------------|
D |-------15--15--15--12--12--12--12----------------------------------|
A |-------------------------------------14--14--14s--15--15--15--15---|
E |---------------------13--13--13--13----10--10--10s--12--12--12--12-|
A |-------------------------------------------------------------------|

B |--13--13--13----18--18--18--18--18----12--12--12----13--13--13--13--13----|
F#|------------------15--15--15--15--15--------------------------------------|
D |----14--14--14--------------------------12--12--12----14--14--14--14--14--|
A |--------------------------------------------------------------------------|
E |--------------------------------------------------------------------------|
A |--------------------------------------------------------------------------| Whole x2

B |--t13p10h12-|--t13p8h12-|--t13p6h8--|
F#|------------|-----------|-----------|
D |------------|-----------|-----------|
A |------------|-----------|-----------|
E |------------|-----------|-----------|
A |------------|-----------|-----------| 
             x4          x4          x8

B |--t13p10h12-|--t13p8h12-|--t13p6h8------------------|
F#|------------|-----------|---------s10h11t13p11p10s3-|
D |------------|-----------|---------------------------|
A |------------|-----------|---------------------------|
E |------------|-----------|---------------------------|
A |------------|-----------|---------------------------|
             x4          x4       x8

B |---------|----------|----------|
F#|--t6p3h5-|--t10p6h8-|--t10p0h6-|
D |---------|----------|----------|
A |---------|----------|----------|
E |---------|----------|----------|
A |---------|----------|----------|
          x4         x4         x8

B |---------|----------|----------|----------|----------|
F#|--t6p3h5-|--t10p6h8-|--t12p6h8-|--t13p6h8-|--t15p6h8-|
D |---------|----------|----------|----------|----------|
A |---------|----------|----------|----------|----------|
E |---------|----------|----------|----------|----------|
A |---------|----------|----------|----------|----------|
          x4         x4         x4         x4         x4

B |--t13p10h12-|--t13p8h12-|--t13p6h8--|
F#|------------|-----------|-----------|
D |------------|-----------|-----------|
A |------------|-----------|-----------|
E |------------|-----------|-----------|
A |------------|-----------|-----------| 
             x4          x4          x8

B |--t13p11h12-|--t15p8h12-|--t17p6h8--|
F#|------------|-----------|-----------|
D |------------|-----------|-----------|
A |------------|-----------|-----------|
E |------------|-----------|-----------|
A |------------|-----------|-----------| 
             x4          x4          x8

B |--t15-----------------------t15------------------------|
F#|-----t17-t15---t15-------------t15----t15--------------|
D |------------t14---t14-------------t14----t14-----------|
A |---------------------t15--------------------t15--------|
E |------------------------t17--------------------t17-----|
A |-------------------------------------------------------|


You don't know how to play ? View my cover: http://youtu.be/lKG8jHodvZ0

Legend:
t - tapping
p - pull off
h - hammer on
s - slide
Добавлено: 29.07.2015
Другие материалы по этой песне:
  • Аккорды и текст

Страница создана 29.07.2015
http://primanota.ru/materia/b17-chords.htm
Привет, Гость.
Предлагаем пройти революционный курс по гитаре.
Подарок от PrimaNota.Ru, забирай!