PrimaNota.ru - самый крупный в мире бесплатный архив песенных текстов, аккордов, табулатур и нот


Matches - Papercut Skin - текст песни, таба, бас-таба, видео

Регистрация Запомнить меня
Войти через:  Facebook Google Twitter Vk Yandex Mail.ru

Matches - Papercut Skin - текст песни, таба, бас-таба, видео

Печатать
Просмотров: 153
-------------------------------------------------------------------------------
                             The Matches- Papercut Skin
-------------------------------------------------------------------------------
Tabbed by: Capptress Kidd
Email: Capptresskidd@yahoo.com

Tuning:Standard

Intro
e|------------------------------------------------------------------------------|
B|------------------------------------------------------------------------------|
G|------------------------------------------------------------------------------|
D|-----4------4----4/---------------4-----4-------------------------------------|
A|-------------------------------------------------222--------------------------|
E|---2------2----2-----000------2-----2-------000-------------------------------|

Verse (aka the same thing)
e|---------------------------------------------------------------------------|
B|---------------------------------------------------------------------------|
G|---------------------------------------------------------------------------|
D|-----4------4----4/---------------4-----4-------------------x2-------------|
A|-------------------------------------------------222-----------------------|
E|---2------2----2-----000------2-----2-------000----------------------------|

Verse continued
e|---------------------------------------------------------------------------|
B|---------------------------------------------------------------------------|
G|-----4----4----4/----------------------------------------------------------|
D|----------------------------4------4-----------------4---------------------|
A|--2------2---2-------------------------------------4---4-------------------|
E|-------------------000---2-------2-------2-0---2---------------------------|

pre- chorus
e|------------------------------------------------------------------------------|
B|------------------------------------------------------------------------------|
G|--------10------13------------------------------------------------------------|
D|-10-----10-(x4)--13-(x4)------------------------------------------------------|
A|-10-(x8)-9-------10-----------------------------------------------------------|
E|--9---------------------------------------------------------------------------|

1st chorus
e|----------------------------------------------------------------------------------|
B|----------------------------------------------------------------------------------|
G|---10-----------------------------------------------------------------------------|
D|---x----(play all the way through duh)--------------------------------------------|
A|---9------------------------------------------------------------------------------|
E|----------------------------------------------------------------------------------|

verse #2 intro
e|-----------2------------------------------------------------------------------|
B|-----------2------------------------------------------------------------------|
G|------------------------------------------------------------------------------|
D|------4----------4------------------------------------------------------------|
A|-----------------------2------------------------------------------------------|
E|---2----------2-----00--------------------------------------------------------|

Then play the verse and pre-chorus

Chorus (play 4 times)
e|--------------------------------------------------------------------------------|
B|--------------------------------------------------------------------------------|
G|-----------6------7--------------7----------------------------------------------|
D|---4-------6-(x8)--7-(x8)--7------7-(Stroke# changes)---------------------------|
A|---4-(x8)---4------5------7-(x8)--5---------------------------------------------|
E|---2----------------------5-----------------------------------------------------|


Bridge
e|------------------------------------------------------------12-12-10-10-9-9--------|
B|------10-9-10-9-----10-9-10-9-----12-12------10-9-10-9--------------------12-12----|
G|11-11----------11-11---------11-11------11-11---------11-11------------------------|
D|-----------------------------------------------------------------------------------|
A|-----------------------------------------------------------------------------------|
E|-----------------------------------------------------------------------------------|

Under the second line of the bridge the 2nd guitar starts to play this
e|---------------------------------------------------------------------------|
B|---------------------------------------------------------------------------|
G|---------------------------------------------------------------------------|
D|---4-4---4-4---7-7--7-7------------4-(x32)----7-(x48)----------------------|
A|---4-4---4-4---7-7--7-7------------4----------7----------------------------|
E|---2-2---2-2---5-5--5-5------------2----------5----------------------------|
pm............................................................................

Then play the verse agian

During "Take Take Take Take"
e|-------------------------------------------------------------------------------|
B|-------------------------------------------------------------------------------|
G|--------444-666-777-999--------------------------------------------------------|
D|--------444-666-777-999--------------------------------------------------------|
A|--------222-444-555-777--------------------------------------------------------|
E|-222-0-------------------------------------------------------------------------|

Then Chorus
and Bridge


done

| /  slide up
| \  slide down
| h  hammer-on
| p  pull-off
| ~  vibrato
| +  harmonic
| x  Mute note
===============================================================================
Добавлено: 13.03.2012
Другие материалы по этой песне:

Страница создана 13.03.2012
http://primanota.ru/matches/papercut-skin-chords.htm
Привет, Гость.
Предлагаем пройти революционный курс по гитаре.
Подарок от PrimaNota.Ru, забирай!