PrimaNota.ru - самый крупный в мире бесплатный архив песенных текстов, аккордов, табулатур и нот


Matchbox Twenty - Cold - аккорды и текст, таба, видео

Регистрация Запомнить меня
Войти через:  Facebook Google Twitter Vk Yandex Mail.ru

Matchbox Twenty - Cold - аккорды и текст, таба, видео

Печатать
Просмотров: 176
Cold
Matchbox Twenty
This will attempt to provide both tabs and chords


intro riff, however this riff is common throughout
e--------------------------------------|
b--------------------------------------|
g--------------------------------------|
d----5-7-5-7-7-5-7-5-7-----5-7---------|
a----------------------5-7-------------|
e--------------------------------------|

e--------------------------------------|
b--------------------------------------|
g--------------------------5-5-5-5-----|
d----5-7-5-7-7-5-7----5-7--------------|
a-------------------7------------------|
e--------------------------------------|

e--------------------------------------|
b--------------------------------------|
g--------------------------------------|
d----5-7-5-7-7-5-7-5-7-----5-7---------|
a----------------------5-7-------------|
e--------------------------------------|

e--------------------------------------|
b--------------------------------------|
g--------------------------5-5-5-------|
d----5-7-5-7-7-5-7----5-7--------------|
a-------------------7------------------|
e--------------------------------------|

Am               G
   I will do without

D/F#               F
   The spaces in between

Am                    G
   If you can tell me now

D/F#                F
   What it means to be

Am                     G
   You have been found out

D/F#           F
   I have been deceived, by the one that I need


C
Tell me why you gotta be so cold

          G
How'd you get so high while you're keeping me low

Am                    F
   You don't know, you don't know

C
Tell me how we're gonna make it last

       G
You're ready to fly

    E7/G#
I'm ready to crash

Am
   Don't go........ don't go, no

e--------------------------------------|
b--------------------------------------|
g------------------------5-5-5---------|
d----5-7-5-7-5-7----5-7----------------|
a-----------------7--------------------|
e--------------------------------------|


Am                 G
   You will go without

D/F#            F
   A better part of me

Am                  G
   There will be no doubt

D/F#            F
   What this all could mean

Am                   G
   You will be found out

D/F#           F
   I can not believe, in the one that I need


C
Tell me why you gotta be so cold

          G
How'd you get so high while you're keeping me low

Am                    F
   You don't know, you don't know, you don't know

C
Tell me how we're gonna make it last

       G
You're ready to fly

    E7/G#
I'm ready to crash

Am          F
   Don't go, don't go away


chords played over riff below
Am x4

Am G D/F# F  C
Добавлено: 14.06.2015
Другие материалы по этой песне:

Страница создана 06.03.2012
http://primanota.ru/matchbox-twenty/cold-chords.htm
Привет, Гость.
Предлагаем пройти революционный курс по гитаре.
Подарок от PrimaNota.Ru, забирай!