PrimaNota.ru - самый крупный в мире бесплатный архив песенных текстов, аккордов, табулатур и нот


Matchbox Twenty - Angry - аккорды и текст, видео

Регистрация Запомнить меня
Войти через:  Facebook Google Twitter Vk Yandex Mail.ru

Matchbox Twenty - Angry - аккорды и текст, видео

Печатать
Просмотров: 92
Angry
Matchbox Twenty
Intro 
e--------------------------------------------------------------------------
b--------------------------------------------------------------------------
g--0-0-0---0H2-2--2--0-0-0---0H2-2--2--0-0-0---0H2-2--2--0-0-0---0H2-2--2--
d--0-0-0---0H2-2--2--0-0-0---0H2-2--2--0-0-0---0H2-2--2--0-0-0---0H2-2--2--
a--------------------------------------------------------------------------
e--------------------------------------------------------------------------

verse strumming patterns
palm muting
   A
e---------------------------------
b---------------------------------
g--0H2--2-2--0-0-0-0-0--0H2--2-2--
d--0H2--2-2--0-0-0-0-0--0H2--2-2-- repeat as needed
a--0----0-0--0-0-0-0-0--0----0-0--
e---------------------------------

A
So scream you, out from behind the bitter ache

       D                               A
You're hanging on the memory, you need most

    A
You still want love; love's ugly, smooth and delicate

    D                              A
But not without affection, no not alone

      Em
And instead of wishing that it would get better

D
Man you're seeing that you just get angrier


         A                   D/F#
And it's good that I'm not angry
           
    d-------------   
    a---------3-2-   
    e--3--0-0-----  
Well I need to get over

                     d----------------
                     a----------------
A              D/F#  e--3--2-0--3-0---
I'm, I'm not angry,     anymore

A
 
A
Cry when you cry, run when you run, love when you love

D                                    A
Represent the ashes that you leave behind

      Em
And instead of wishing that the road had shoulder

D
Man you're seeing that you're sinking over time, and you're blind



         A                   D/F#
And it's good that I'm not angry

    d-------------   
    a---------3-2-   
    e--3--0-0-----  
Well I need to get over

A              D/F#  
I'm, I'm not angry

  d------------
  a------------
  e--3-2-0-3-0-
It's dragging me under

                     d----------------
                     a----------------
A              D/F#  e--3--0-0--3-0---
I'm, I'm not angry

d-----------------
a-----------------
e--3-0--3-0-3-0---

A          D
I'm not angry it's never been enough

A            D           G
   It gets inside and it tears you up

A          D              G
   I'm not angry but I've never been above it

         d------------
         a--3br-------  
Добавлено: 12.06.2015
Другие материалы по этой песне:

Страница создана 19.04.2012
http://primanota.ru/matchbox-twenty/angry-chords.htm
Привет, Гость.
Предлагаем пройти революционный курс по гитаре.
Подарок от PrimaNota.Ru, забирай!