PrimaNota.ru - самый крупный в мире бесплатный архив песенных текстов, аккордов, табулатур и нот


Matchbox 20 - Feel - аккорды и текст, таба, видео

Регистрация Запомнить меня
Войти через:  Facebook Google Twitter Vk Yandex Mail.ru

Matchbox 20 - Feel - аккорды и текст, таба, видео

Печатать
Просмотров: 121
Feel
Matchbox 20
		   Takes some to get all the strumming patterns, but its not too bad.
Chords:
-------
A   x0222x
G   355433
C   x3555x
F#m 244222
D   x5777x
Intro:
------
Use Heavy Distortion! :P
   A            C           F#      E  G   C  A  G
e|--x---x--x--x--------------------------------------|
B|--2---x--x--x--------------------------------------|
G|--2---x--x--x--------------------------------------|
D|--2---x--x--x--------------------------------------|  [Repeat 2x]
A|--0---x--x--x--3-3-3-3-3-3----------------3--0-----|
E|--x---x--x--x---------------2---2--0--3---------3--|


    A            C
e|--x---x--x--x---------------------------------------|
B|--2---x--x--x---------------------------------------|
G|--2---x--x--x---------------------------------------|
D|--2---x--x--x---------------------------------------|
A|--0---x--x--x--3-3-3-3-3-3--------------------------|
E|--x---x--x--x---------------2--2-2-2--0---3---------|

Verse:
------
A                                                          C
What you want what you got live your life in a crawl space
A                                                             C
I'll help you out, but you don't wanna chance at a better life
A                                                    C
You said you never took a ride and now ya wanna play
A                              C                      D
Well its a big big city let me show you around some time
              G
Oh some time                                               Fig.1        (^ =Bend)

Chorus:                                                     |--x------x-----------|
------                                                      |--2------2-----------|
A          C                 F#m                            |--2------2-----------|
And now you crossed that line                               |--2------2-----------|
F#m                          G                    A(Fig.1)  |--0------0-----------|
You cant turn back tell me how does it feel now             |--3^-----0-----------|
A            C                 F#m
Too late too much to forget about
F#m           G                    A(Fig.1)
Can't stop now how does it feel now
A       C            F#m      G     A(Fig.1)
Im only askin because i wanna know
C       G         A
How you wanna feel

*Name of notes
   *C A G     A            C           F#         A  G         C A G
e|------------x---x--x--x----------------------------------------------|
B|------------2---x--x--x----------------------------------------------|
G|------------2---x--x--x----------------------------------------------|
D|------------2---x--x--x----------------------------------------------|
A|--3-0-------0---x--x--x--3-3-3-3-3-3------------------------3-0------|
E|------3-----x---x--x--x---------------2--2-2-2--0--3---3--3------3---|

   A            C           F#      E  G   C  A  G
e|--x---x--x--x--------------------------------------|
B|--2---x--x--x--------------------------------------|
G|--2---x--x--x--------------------------------------|
D|--2---x--x--x--------------------------------------|
A|--0---x--x--x--3-3-3-3-3-3----------------3--0-----|
E|--x---x--x--x---------------2---2--0--3---------3--|

Verse:
-----
A                                                  C
Well Im a wreck im a mess im a spot on the pavement
A                                             C
Im a number on your wall i'll make ya so tired
A                                       C
And i dont think i like this game no more
A                                 C                    D
It goes around around around i'll take it one more time
                  G
Hey one more time                                           Fig.1        (^ =Bend)

Chorus:                                                     |--x------x-----------|
------                                                      |--2------2-----------|
A          C                 F#m                            |--2------2-----------|
And now you crossed that line                               |--2------2-----------|
F#m               G                            A(Fig.1)     |--0------0-----------|
You cant turn back tell me how does it feel now             |--3^-----0-----------|
A            C                 F#m
Too late too much to forget about
F#m              G                  A(Fig.1)
Can't stop now how does it feel now
A       C            F#m      G     A(Fig.1)
Im only askin because i wanna know
C       G         A
How you wanna feel

Chords during Solo:
------------------
C x3555x
D x5777x
A x0222x
     C    D      A
e|---x----x------x------|
B|---5/---7------2------|
G|---5/---7------2------|   --(Downstrum everything)Slide From C to D 3x then end on A
D|---5/---7------2------|      Pattern Changes a little towards end of solo*.Play
A|---3/---5------0------|      3x all together with the chords up until the *, then
E|---x----x------x------|      slide from C to D, strum D 2x, end on A at the chorus.
SOlO:
-----
*Sounds better with an octave pedal effect, or try and play the octaves youself
e|------------------------------------------------------------------------------|
B|--8/10--10--10--8--10--8--8/10--10--10--8--10--10--8--10--8/10\8--------------|
G|-----------------------------------------------------------------9------------|
D|------------------------------------------------------------------------------|
A|------------------------------------------------------------------------------|
E|------------------------------------------------------------------------------|
...How ya wanna feel.
e|-----------------------------------------------------8/10\8-------------------|
B|--8/10--10--10--8--10--8--8/10--10--10--8/10--10--10---------10---------------|
G|------------------------------------------------------------------------------|
D|------------------------------------------------------------------------------|
A|------------------------------------------------------------------------------|
E|------------------------------------------------------------------------------|

e|------------------------------------------------------------------------------|
B|--8/10--10--10--8--10--8--8/10--10--10--8--10--10--8--10--8/10\8--------------|
G|---------------------------------------------------------------------9--------|
D|------------------------------------------------------------------------------|
A|------------------------------------------------------------------------------|
E|------------------------------------------------------------------------------|
                    *Pattern Changes
e|------------------10--8--------------10--8---8----8--10-10/12------12/17------|
B|--8---8--8/10\8----------10--8-----------------10--------------13-------------|
G|----9----------------------------9--------------------------------------------|
D|------------------------------------------------------------------------------|
A|------------------------------------------------------------------------------|
E|------------------------------------------------------------------------------|

                                                            Fig.2        (^ =Bend)
Chorus:                                                   |--x-----------x------|
------                                                    |--2-----------2------|
A          C                 F#m                          |--2-----------2------|
And now you crossed that line                             |--2-----------2------|
F#m                G                           A(Fig.2)   |--3p0---------0------|
You cant come back tell me how does it feel now           |------3-------x------|
A            C                 F#m
Too late too much to forget about
F#m            G                    A(Fig.2)
Can't stop now how does it feel now
A       C            F#m      G     A ----(577655)
Im only askin because i wanna know
C       G         A
How you wanna feel
C       G         A
How you wanna feel
C       G         A
How you wanna feel

Outro:
-----                                    A -----(Strum Down 4x)
e|---------------------------------------x-------------------------------------|
B|--8/10--8---5--------------------------14------------------------------------|
G|----------------7--5----12/13~---------14------------------------------------|
D|---------------------------------------14------------------------------------|
A|---------------------------------------12------------------------------------|
E|---------------------------------------12------------------------------------|     
Добавлено: 17.07.2013
Другие материалы по этой песне:
  • Аккорды и текст

Страница создана 06.05.2012
http://primanota.ru/matchbox-20/feel-chords.htm
Привет, Гость.
Предлагаем пройти революционный курс по гитаре.
Подарок от PrimaNota.Ru, забирай!