PrimaNota.ru - самый крупный в мире бесплатный архив песенных текстов, аккордов, табулатур и нот


Matchbox 20 - Disease - аккорды и текст, таба, видео

Регистрация Запомнить меня
Войти через:  Facebook Google Twitter Vk Yandex Mail.ru

Matchbox 20 - Disease - аккорды и текст, таба, видео

Печатать
Просмотров: 167
Disease
Matchbox 20
Tab By David

This should be very close to the actual. It should be very precise.
Sorry if there are any errors. My First Tab Ever

Tuning:Eb,Ab,Db,Gb,Bb,eb

      h - hammer on 
      p - pull off 
      b - bend string up
      r - release bend
      / - slide up
       - slide down
      v - vibrato (sometimes written as ~)
      t - tap (with strumming hand)
      x - muted, struck string



Intro Riff: 
Eb-------------------------------------------------------------
Bb-------------------------------------------------------------
Gb-------------------------------------------------------------
Db-----5-5-5-5-5-5-7-7-7-7-7-7-6-6-6-6-6-6-6-7-7-7-------------
Ab-------------------------------------------------------------
Eb-------------------------------------------------------------


After the intro play this:
Eb-------------------------------------------------------------
Bb-------------------------------------------------------------
Gb-------------7---5-------------------------------------------
Db-------------7---5-------------------------------------------
Ab-------5h7---------------------------------------------------
Eb-------------------------------------------------------------


Play intro riff again, with a slight variation:
Eb-------------------------------------------------------------
Bb-------------------------------------------------------------
Gb--------------------------------------5-4--------------------
Db-----5-5-5-5-5-5-7-7-7-7-7-7-6-6-6-6------7------------------
Ab-------------------------------------------------------------
Eb-------------------------------------------------------------

Verse:
     x x             x x         x x
Eb--------------|-------------|----------|---------------------
Bb--------------|-------------|----------|---------------------
Gb---5-5--------|----7-7------|--5-5-----|---------------------
Db--------------|-------------|----------|---------------------
Ab--------------|-------------|----------|---------------------
Eb--------------|-------------|----------|---------------------
   Repeat 8x       Repeat 4x    Repeat 3x


Verse:  Am                    E         
Eb-------------------------------------------------------------
Bb------1----0----1---1-------0---------1---0---1---1---1---0--
Gb------2----0----2---2-------1---------2---0---2---2---2---1--
Db------2----0----2---2-------2---------3---3---3---3---3---2--
Ab------0----0----0---0-------2---------3---3---3---3---3---2--
Eb------------------------3---0--------------------------------


Eb-------------------------------------------------------------
Bb--------------------------------------1---0---1---1-----0----
Gb-----10---10---10---10---10---7-------2---0---2---2-----1----
Db-----10---10---10---10---10---7-------2---0---2---2-----2----
Ab-----8----7----8----8----7----5-------0---0---0---0-----2----
Eb-----------------------------------------------------3-------

Pre-Chorus:
Just Chords

F  G  Am  Dm
F  E

Chorus:
Guitar 1:

Am Dm E7 Am 


Guitar 2: Intro Riff
Eb-------------------------------------------------------------
Bb-------------------------------------------------------------
Gb--------------------------------------5-4--------------------
Db-----5-5-5-5-5-5-7-7-7-7-7-7-6-6-6-6------7------------------
Ab-------------------------------------------------------------
Eb-------------------------------------------------------------


Right Before 2nd Verse play this:
Eb--------------5----------------------------------------------
Bb------------5---8-5------------------------------------------
Gb--------7b9---------7b9--------------------------------------
Db-------------------------------------------------------------
Ab-------------------------------------------------------------
Eb-------------------------------------------------------------

2nd Verse Riff:
Listen to thw song to get the right timing
Eb---7------------------|----7-----------------|----7------------
Bb-----8-5--------------|------8-5-------------|------8-5--------
Gb---------7b9-5-7------|----------7b9-5-7-5---|----------7b9-5-7-4--
Db-----------------6----|----------------------|-----------------
Ab----------------------|----------------------|-----------------
Eb----------------------|----------------------|-----------------

Eb---7------------------------
Bb-----8-5--------------------
Gb---------7b9-5-7-5b7--------
Db----------------------------
Ab----------------------------
Eb----------------------------

Bridge:
Guitar 1:
Dm Am Dm E7


Guitar 2:
Eb-------------------------------------------------------------
Bb---------5-4---------5-4--------5-4--------5-4---------------
Gb-------------5-5/7-------5-5/7------5-5/7------5-5/6---------
Db-------------------------------------------------------------
Ab-------------------------------------------------------------
Eb-------------------------------------------------------------

Ending:
Eb-------------------------------------------------------------
Bb-----10---10---10---10-9---9---9---9--8---8---8---8-9---9---9
Gb--------9----9----9------9---9---9------9---9---9-----9---9--
Db-------------------------------------------------------------
Ab-------------------------------------------------------------
Eb-------------------------------------------------------------

Eb-------------------------------------------------------------
Bb----5-4---------------------5-4------------------------------
Gb--------7-7-7-7-7-7-6-6-6-6-----5-5-5-5-5-5-6-6-6-6----------
Db-------------------------------------------------------------
Ab-------------------------------------------------------------
Eb-------------------------------------------------------------

Eb------------------------------7-----------------------------
Bb-------5---7b8b7---5----------5-----------------------------
Gb-------5---7b8b7---5----------5-----------------------------
Db------------------------------5-----------------------------
Ab-------------------------------------------------------------
Eb-------------------------------------------------------------
Добавлено: 17.07.2012
Другие материалы по этой песне:
  • Аккорды и текст

Страница создана 14.05.2012
http://primanota.ru/matchbox-20/disease-chords.htm
Привет, Гость.
Предлагаем пройти революционный курс по гитаре.
Подарок от PrimaNota.Ru, забирай!