PrimaNota.ru - самый крупный в мире бесплатный архив песенных текстов, аккордов, табулатур и нот


Mata Ratos - A Minha Sogra E Um Boi - таба, видео

Регистрация Запомнить меня
Войти через:  Facebook Google Twitter Vk Yandex Mail.ru

Mata Ratos - A Minha Sogra E Um Boi - таба, видео

Печатать
Просмотров: 99
http://www.myspace.com/mataratos1982

Artist: Mata Ratos
Song: A Minha Sogra É Um Boi
Tabbed by: SonnePT
Tuning: Standard (E A D G B e)
_______________________________
Key:
PM = Palm Mute
b = Bend
p = Pull-Off

This is a great song from a portuguese punk band. It's easy to play but I haven't
seen good tabs of the song yet, so here it goes. Listen to the song carefuly t
get the right timing :p

Intro/Verse
e|-----------------------------------------------------------|
A|-----------------------------------------------------------|
D|-----------------------------------------------------------|
G|-2--2-2-2-2--4-5-5-5-5-5--9-10-10-10-10-10--9-7-7-7-7-7--5-|
B|-0--0-0-0-0--2-3-3-3-3-3--7-8--8--8--8--8---7-5-5-5-5-5--3-|
E|-----------------------------------------------------------|
PM . . . . . . . . . . . . . . . .

Chorus
e|------------------------|
A|------------------------|
D|------------------------|
G|-10-10-10-10-9--2-2-2-2-|
B|-8--8--8--8--7--0-0-0-0-|
E|------------------------|

e|------------------------|
A|------------------------|
D|------------------------|
G|-10-10-10-10-9--5-5-5-5-|
B|-8--8--8--8--7--3-3-3-3-|
E|------------------------|

e|------------------------|
A|------------------------|
D|------------------------|
G|-10-10-10-10-9--2-2-2-2-|
B|-8--8--8--8--7--0-0-0-0-|
E|------------------------|

e|------------------------|
A|------------------------|
D|------------------------|
G|-4-4-4-4-4-9-9-9-9-9----|
B|-2-2-2-2-2-7-7-7-7-7----|
E|------------------------|

Solo (play it over verse)
The solo isn't 100% perfect, but it sounds good anyway. If you know how the solo
goes, correct it pease.
e|-------------------------------------------------------------|
A|-------------------------------------------------------------|
D|-------------------------------------------------------------|
G|-7--7-7--7-7-9-10--10-10-10-10-9-7---------------------------|
B|------------------------------------8--8-8-8-8-10-8-5--5-5-5-|
E|-------------------------------------------------------------|

e|-----------------------------------------------------------------------|
A|-----------------------------------------------------------------------|
D|--------------------------------------------------------------12b12b12-|
G|-12b-12b-12bp10------12b-12b-12bp10----10--12b-12b-12bh10-12--12b------|
B|----------------12------------------12---------------------------------|
E|-----------------------------------------------------------------------|


e|---------------------------------------------------------------------|
A|---------------------------------------------------------------------|
D|-13b-13b-13-11-10-9--------------------------------------------------|
G|---------------------13b-13b-13-12-10---15--15-15-15-17-15-13-12-12b-|
B|---------------------------------------------------------------------|
E|---------------------------------------------------------------------|

Work out the bends, try to listen to the song very well, and you'll get it :p

Play it this way:
- Intro/Verse x4
- Chorus x1
- Intro/verse x4
- Chorus x1
- Intro/Verse x1
- Solo + Intro/Verse (x3 Intro/Verse)
- Chorus x1
- Intro/Verse x4
- Chorus x3
Добавлено: 17.07.2012
Вам также может быть интересно:
Другие материалы по этой песне:
  • Аккорды и текст

Страница создана 17.07.2012
http://primanota.ru/mata-ratos/a-minha-sogra-e-um-boi-chords.htm
Привет, Гость.
Предлагаем пройти революционный курс по гитаре.
Подарок от PrimaNota.Ru, забирай!