PrimaNota.ru - самый крупный в мире бесплатный архив песенных текстов, аккордов, табулатур и нот


Mat Mchugh - No One Left To Blame - таба, видео

Регистрация Запомнить меня
Войти через:  Facebook Google Twitter Vk Yandex Mail.ru

Mat Mchugh - No One Left To Blame - таба, видео

Печатать
Просмотров: 74
Авторы музыки: Mat McHugh
Авторы текста: Mat McHugh
No one left to blame. 
(Mat Mchugh)
*Cifras e Tablaturas por Lucas Alves.

Afinação padrão
(Obs: A gravação da musica, e como o proprio Mat Mchugh toca, é tocado em um  
violão afinado um tom abaixo, mas fiz um arranjo para ser tocada na afinação padrão).


(Solinho da introdução, 1ª e 3ª parte da musica) 

     F                             B                            F(repete)
E|------1------------------------------x----------------------------1-------|
B|------1--1/3-3-1-1-------------------3----------------------------1-------|
G|------2-------------0h2-2-0-2--------3----------------------------2-------|
D|------3------------------------------3----------3----5-3----------3-------|
A|------3--------------------------1---1----3/5-5----5-----5-3------3-------|
E|---1--1-------------------------------------------------------1---1-------|


(1ª parte)
And when the stars are busy falling at your feet
Would you be busy calling after me
Would i be anywhere you wanna go
Would you say anything to give me hope
I dream that under water i can breathe
I dream to come the day i'll be released
Been drowned about the beating of my heart

(variação)*
I'd sleep, but i could fall apart

*    C                       F
E|--x/0---------------------x/0---|
B|--5/0---------------------10/0--|
G|--5/0----/5-7--5----------10/0--|
D|--5/0----/5------7--5-----10/0--|
A|--3/0-------------------8-8/0---|
E|--------------------------------|


(Solo da 2ª e 4ª parte da musica)
              
                Dm
e|----------------x------|   
B|----------------6------|
G|----------------7------|
D|----------------7------|
A|-------10-----5-5------|
E|---/12---12------------|

                G
e|----------------x------|   
B|----------------3------|
G|----------------4------|
D|----------------5------|
A|-------8--------5------|
E|---/10--10----3-3------|


(2ª parte)
                   Dm
It's killing me slow
            G
This weight on my shoulders
                  Dm
Been breaking my bones
                G
Been hoping you know this


(refrão)
You know this mean go
Or would you away from me
Or would you take your time,
Turn and walk away
And leave me stay behind
So tell me do you know?
If you would feel the same
With no one left to go
With no one left to...
   

           A  G  F                    F  G  Bb
e|-------------x--|       e|------------x---|        
B|-------------1--|       B|------------6---|
G|-------------2--|       G|------------7---|
D|-------------3--|       D|------------8---|
A|-------------3--|       A|------------8---|
E|---5--3--1-1-1--|       E|--1—-3—-6-6-6---|
     “You know this mean go”   “Or would you away from me”


           Bb  A   G                   G  A  C
e|-------------x--|       e|------------x---|        
B|-------------3--|       B|------------8---|
G|-------------4--|       G|------------9---|
D|-------------5--|       D|------------10--|
A|-------------5--|       A|------------10--|
E|---6--5--3-3-3--|       E|--3—-5—-8-8-8---|
 “Or would you take your time,”    “Turn and walk away”

           C  G  F                     F  G  Bb
e|-------------x--|       e|------------x---|        
B|-------------1--|       B|------------6---|
G|-------------2--|       G|------------7---|
D|-------------3--|       D|------------8---|
A|-------------3--|       A|------------8---|
E|---8--3--1-1-1--|       E|--1—-3—-6-6-6---|
 “And leave me stay behind”      “So tell me do you know”

           Bb  A  G                    G  A  C
e|-------------x--|       e|------------x---|        
B|-------------1--|       B|------------8---|
G|-------------4--|       G|------------9---|
D|-------------5--|       D|------------10--|
A|-------------5--|       A|------------10--|
E|---6--5--3-3-3--|       E|--3—-5—-8-8-8---|
 “If you would feel the same”    “With no one left to go”

           C  G  F                   
e|-----------x----------|               
B|-----------1-1/3(...)-|        (...)= segue o solinho da introdução)
G|-----------2----------|        
D|-----------3----------|         
A|-----------3----------|         
E|---8--3--1-1----------|         
 “With no one left to blame” 
(passagem da musica)
  
     F                             B                            F(repete)
E|------1------------------------------x----------------------------1-------|
B|------1--1/3-3-1-1-------------------3----------------------------1-------|
G|------2-------------0h2-2-0-2--------3----------------------------2-------|
D|------3------------------------------3----------3----5-3----------3-------|
A|------3--------------------------1---1----3/5-5----5-----5-3------3-------|
E|---1--1-------------------------------------------------------1---1-------|

     F                             B                            F(repete)
E|------1------------------------------x---------------------------- 1-------|
B|------1--1/3-3-1-1-------------------3---------------------------- 1-------|
G|------2-------------0h2-2-0-2--------3-------------------5---------2-------|
D|------3------------------------------3----------3----5/7---7-5---- 3-------|
A|------3--------------------------1---1----3/5-5----5---------------3-------|
E|---1--1----------------------------------------------------------1-1-------|

     F                             B       C                      F
E|------1------------------------------x---x/0----------------------x----|
B|------1--1/3-3-1-1-------------------3---5/0----------------------10---|
G|------2-------------0h2-2-0-2--------3---5/0----/5--7--5----------10---|
D|------3------------------------------3---5/0----/5--------7--5—-- 10---|
A|------3--------------------------1---1---3/0--------------------8-8----|
E|---1--1----------------------------------------------------------------|


(3ªparte)
And when the lights are busy shining on you name?
Would remember when we were the same
When every thought we share was full of hope
When no one know how far this thing would go
Now days have come and days have gone away
Now i've been wondering how things have changed
That's when i fall apart and cry it on the night

(variação)*
That's wrong, but maybe still that's right

(4ª parte)
It's killing me slow
This weight on my shoulders
Been breaking my bones
Been hoping you know this


(refrão)
You know this mean go
Or would you away from me
Or would you take your time,
Turn and walk away
And leave me stay behind
So tell me do you know?
If you would feel the same
With no one left to go
With no one left to...


(mesmo ritmo/ igual ao refrão)
Take those days, those ways, there's no one left to blame
Take those rains, those strains, there's no one left to blame
Take those lies, those times, there's no one left to blame
Retrace, rewind, resign, there's no one left to blame
Добавлено: 12.08.2013
Другие материалы по этой песне:
  • Аккорды и текст

Страница создана 12.08.2013
http://primanota.ru/mat-mchugh/no-one-left-to-blame-chords.htm
Привет, Гость.
Предлагаем пройти революционный курс по гитаре.
Подарок от PrimaNota.Ru, забирай!