PrimaNota.ru - самый крупный в мире бесплатный архив песенных текстов, аккордов, табулатур и нот


Mastodon - Seabeast - текст песни, таба, бас-таба, видео

Регистрация Запомнить меня
Войти через:  Facebook Google Twitter Vk Yandex Mail.ru

Mastodon - Seabeast - текст песни, таба, бас-таба, видео

Печатать
Просмотров: 210
artist: Seabeast
song: Mastodon
album: Leviathin

hmm..yeah. i couldn't really make any of the other tabs for this sound right, so i did 
intro myself, which was really the only part no one has right. there might be one or two 
wrong, since i'm not exactly a good guitarist, but i think this is probably the most accurate tab on here.


  guitar one  play four times
e|---------------------------------------------------------------|
b|-------4---4-------4---4--------7---7--------7---7-------------|
g|---------2-----------2------------5------------5---------------|
d|---------------------------------------------------------------|
a|---7-----------7-----------10-----------10---------------------|
e|-5---8-------5---8-------8----8-------8----8-------------------|


play first and third time
  guitar two
e|-------------------12---------5-7~~-5-7-8~~--------------------|
b|-------------10-13----13-10------------------------------------|
g|-------8-5/8----------------9----------------------------------|
d|-----7---------------------------------------------------------|
a|---7-----------------------------------------------------------|
e|-5-------------------------------------------------------------|

play second and fourth time
e|---------------------------------------------------------------|
b|-------------10-8----------------------------------------------|
g|-------8-5/8------9-8-9-8-9~~-8~~-8-9--------------------------|
d|-----7---------------------------------------------------------|
a|---7-----------------------------------------------------------|
e|-5-------------------------------------------------------------|
Добавлено: 10.05.2012
Другие материалы по этой песне:

Страница создана 15.03.2012
http://primanota.ru/mastodon/seabeast-chords.htm
Привет, Гость.
Предлагаем пройти революционный курс по гитаре.
Подарок от PrimaNota.Ru, забирай!