PrimaNota.ru - самый крупный в мире бесплатный архив песенных текстов, аккордов, табулатур и нот


Mastodon - Pendulous Skin - текст песни, таба, видео

Регистрация Запомнить меня
Войти через:  Facebook Google Twitter Vk Yandex Mail.ru

Mastodon - Pendulous Skin - текст песни, таба, видео

Печатать
Просмотров: 191
Pendulous Skin


_____________________________repeat 2x___________________________________
D~----------------------0------|--------------------|--------------------------0-------|-----------------||
A~-------------------------6---|--------------------|-----------------------------6----|-------------6---||
F~-------------6--------------7|--------------6----|----------------6---------------7-|----------------7-||
C~-------7--------7----------- |--------7-------7- |---------7--------7-------------- |-------7----------||
G~----0------------------------|-----0-------------|------0---------------------------|-----0------------||
D~-6-------6--------6---------|--6--------6------ |---5--------5--------5-----------|--5------5----------||

                                                   ____________________________repeat 2x______
|-------------------------------------||-----------------7------------------------------------7----||
|-------------------------------------||---------------------0---------------------0-------------0-||
|-------------------------------------||----------5--------------5--------5-----------5------------||
|---------0--------0--------0-----2-||-------7-----7-----------------7-----7-----------7-----------||
|------5--------4--------3------2---||---0------------------------0--------------------------------||
|---6--------5--------1-------0-----||-------------------------------------------------------------||

______________________________________  _________________________repeat 2x
|----------------7----------------------7---------------||---------------------------------------------||
|---------0---------0------------0--------0------------||---------------------0------------------------||
|------7-----7---------7-----7-----7--------7------7- ||------------11---------11-------------------11-||
|---5----------------------5---------------------5----- ||-------12--------------------------------12--||
|--------------------------------------------------------||---10-----------10--------------------------||
|--------------------------------------------------------||------------------------------10-----10-----||

_________________   _______________repeat 2x__________________
|-------0-----------------||--------------------------------------------------0-------||
|-----------0-------------||-----------------0-----------------------3-----------3----||
|----------------11-- --- ||----------0---------0------------4----------4-----------4-||
|-------------------- -12 ||-------4----4----------4-----5-----5----------------------||
|-------------------- ---- ||----2----------------------3-----------------------------||
|--10--------------- ---- ||----------------------------------------------------------||

_______repeat 2x                _______repeat 2x_____   ________repeat 3x________
|----------------2---0---------||---------------5---0---------||---9-0------------9-0--------------||
|------------3----------3------||-----------6-----------6-----||---------10-------------10---------||
|--------0------------------0--||-------0-------------------0-||-------------0--------------0------||
|----4----------------------- - ||---7---------------------- -- ||---------------11-------------11-||
|-------------------------------||------------------------------||---------------------------------||
|-------------------------------||------------------------------||---------------------------------||

__pause_
||---------||----------------0------------------0------------------||------0------||
||---------||---------------------------------------0-----------  --||------0-----||
||---------||---------7-----------------7--------------7--------  -||------0------||
||---------||------9---- 9----------9------9--------------9----- -||------4-------||
||----0--  ||---9----------------9------------------------------9  ||------2------||
||---------||-------------------------------------------------------||------0-----||
Добавлено: 26.06.2012
Другие материалы по этой песне:

Страница создана 13.03.2012
http://primanota.ru/mastodon/pendulous-skin-chords.htm
Привет, Гость.
Предлагаем пройти революционный курс по гитаре.
Подарок от PrimaNota.Ru, забирай!