PrimaNota.ru - самый крупный в мире бесплатный архив песенных текстов, аккордов, табулатур и нот


Mastodon - Ember City - текст песни, бас-таба, видео

Регистрация Запомнить меня
Войти через:  Facebook Google Twitter Vk Yandex Mail.ru

Mastodon - Ember City - текст песни, бас-таба, видео

Печатать
Просмотров: 169
Авторы музыки: Mastodon
Авторы текста: Mastodon
-------------------------------------------------------------------------------
                             Ember City - Mastodon
-------------------------------------------------------------------------------
Tabbed by: Tim K

Troy plays this song a little differently on the record vs. live shows; I tried to capture as much detail
as possible.  Hope this can be a good starting point for what is an awesome song.

Tuning: DGCF

Finger style

Main Riff                                                         (try this ending too)
G|------------------------------------------|----------------|    |---------0-----|
D|------------------------------------------|-----------4----|    |---2-5-4---4---|
A|-----------2------3------5------------2---|-3-3-3-5-5---5--|    |-3-----------5-|
E|--0--3--0-------------------0--3--0-------|----------------| x4 |---------------| 


Main Riff Variation (Troy throws this in live sometimes when the guitarists play their variation)
G|---------------------------------|
D|---------------------------------|
A|-----------5~-------------5h7-5--|
E|--0--7--0--------0--7--0---------| x2


Verse (not exactly like the guitar part- there is a little "hiccup" nuance after the second "D" note)
G|---------------------------------------------------------------|
D|-----------------------------------------------5---------------|
A|-----7-------7-----7--8-----8-----7---------/7---7\---3~--7-6--|
E|--0---------0-0---0------5-----8----8\-------------------------|
             hiccup

G|---------------------------------------------------------------|
D|-------------------------------------------------1-------------|
A|-----7-------7-----7--8-----8-----7------------3---1------6-7--|
E|--0---------0-0---0------5-----8----8\-------1--------0-7------| x2
             hiccup

Chorus
G|------------------------------------------------------------|
D|--------------------------------------------------5h7/9-7---|
A|---------10-9\---5------5/7----------10-9\---5-----------10-|
E|--0----0-------0------0-------0----0-------0----0-----------|

G|------------------------------------------------------------|
D|------------------------------------------------------------|
A|------------------------------------------------------------|
E|--8-------8-------8-------8-------8-------8-------8-------8-| x2

Main Riff

Verse

Chorus

Guitar Solo
G|-------------------------------------------------|
D|-------------------------------------------------|
A|-------------/7~----------------------/7~-----10-|
E|--0-----------------------0----------------------|

G|-------------------------------------------------|
D|-------------------------------------------------|
A|--------10-9--------10-9---------10-9------10-9--|
E|--8----8--8---8----8--8---8-----8--8---8--8--8---| x2


Bridge (you can double all notes at double-time if you are a beast!)
G|---------------------------------------------------------------------11----------------16-----|
D|------------------------------------9----------------------9----12-9----12-11-12-14-14----16\-|
A|------8---7---10-7-----8---7---10-7---10-----8---7---10-7---10--------------------------------|
E|--0-0---0---0------0-0---0---0-----------0-0---0---0------------------------------------------| x2


Guitar Solo

Chorus

Bridge

Main Riff

Enjoy

TK


| /  slide up
| \  slide down
| h  hammer-on
| p  pull-off
| ~  vibrato
| +  harmonic
| x  Mute note
===============================================================================
Добавлено: 18.10.2015
Вам также может быть интересно:
Другие материалы по этой песне:

Страница создана 04.12.2014
http://primanota.ru/mastodon/ember-city-chords.htm
Привет, Гость.
Предлагаем пройти революционный курс по гитаре.
Подарок от PrimaNota.Ru, забирай!