PrimaNota.ru - самый крупный в мире бесплатный архив песенных текстов, аккордов, табулатур и нот


Mastodon - Crystal Skull - текст песни, таба, бас-таба, видео

Регистрация Запомнить меня
Войти через:  Facebook Google Twitter Vk Yandex Mail.ru

Mastodon - Crystal Skull - текст песни, таба, бас-таба, видео

Печатать
Просмотров: 191
Авторы музыки: Mastodon
Авторы текста: Mastodon, Scott Kelly
Band:  MASTODON
Album: BLOOD MOUNTAIN
Song: Crystal Skull

email: martinlysaker@hotmail.com

Tuning D G C F A D

my first tab so might not be correct but think it is 99% correct

D-------------------------------------------------------------------|
A-------------------------------------------------------------------|
F---------7-9-------------------------------------------------------|
C---------------7-9-------------------------------------12-14-12-14-|
G-----------------------7---------5-7-0----10-12--12-14-------------|
D---------------------------7---------------------------------------|

|-------------------12--12---12-------------------------------------|
|---------------0---15--15---15--15---15--12-----15-12--14-12-14-12-|
|-12-14-12-14---0-----------------------------14--------------------|
|-------------------------------------------------------------------|
|-------------------------------------------------------------------|
|-------------------------------------------------------------------|

|-------------------------------------------------------------------|
|-------------------------------------------------------------------|
|--15-14-12-11-12-11----11------------------------------------------|
|--------------------14-----14-12----12-14-12-----12----------------|
|---------------------------------14-----------14-----14-12-10-12---|
|-------------------------------------------------------------------|


|-----------------------------------------12----12------------------|
|--------------------------12--15--12--15----15-----15-12-----------|
|--------------------12-14--------------------------------16--------|
|-------------12--14------------------------------------------------|
|-10----10-12-------------------------------------------------------|
|----12-------------------------------------------------------------|


|-12-----------12----------12----------12----------12---------------|
|----15-12--------15-12-------15-12-------15-12-------15-12---------|
|----------16-----------16----------16----------16----------16------|
|-------------------------------------------------------------------|
|-------------------------------------------------------------------|
|-------------------------------------------------------------------|


|-12----------12----------------15-15-16-15--12----12-----12-14-12--|
|----15-12-------15-12--------------------------15----15------------|
|----------16----------16----0--------------------------------------|
|-------------------------------------------------------------------|
|-------------------------------------------------------------------|
|-------------------------------------------------------------------|

|----12------------------------------12----------12-----------------|
|-15-----15-12-----15----12-15-12-------15-12-------15-14-12--0-----|
|--------------15-----15----------15----------15--------------0-----|
|-------------------------------------------------------------------|
|-------------------------------------------------------------------|
|-------------------------------------------------------------------|


|-------------------------------------------------------------------|
|----------------------0-3-0----------------------------------------|
|----12---------0-2-4----------1-2-----2-0-----0-2-0---0------------|
|-14----0-2-2-4--------------------2-------4-4-------4----2-4-0-2---|
|-------------------------------------------------------------------|
|-------------------------------------------------------------------|

|------------------------------------------------------0---------0--|
|---------------------------0--------0-3-0----0-----8---------8-----|
|--0--------2-----2-4-0-2-4---4-3-0---------7---9----------9--------|
|-----2-4-5---4-5---------------------------------------------------|
|-------------------------------------------------------------------|
|-------------------------------------------------------------------|


|-------0--------0-----------0----------0--------0-------0----------|
|----12-------12---------13---------13-------15-------15----15^^----|
|-12-------12--------14---------14--------16-------16---------------|
|-------------------------------------------------------------------|
|-------------------------------------------------------------------|
|-------------------------------------------------------------------|



Добавлено: 16.09.2013
Другие материалы по этой песне:

Страница создана 12.07.2012
http://primanota.ru/mastodon/crystal-skull-chords.htm
Привет, Гость.
Предлагаем пройти революционный курс по гитаре.
Подарок от PrimaNota.Ru, забирай!