PrimaNota.ru - самый крупный в мире бесплатный архив песенных текстов, аккордов, табулатур и нот


Mastodon - Creature Lives - текст песни, бас-таба, видео

Регистрация Запомнить меня
Войти через:  Facebook Google Twitter Vk Yandex Mail.ru

Mastodon - Creature Lives - текст песни, бас-таба, видео

Печатать
Просмотров: 136
Авторы музыки: Mastodon
Авторы текста: Mastodon
F-14---12---11----12-|
C-0--0----0-0-----0--| x3
G--------------------|
C--------------------|


F-14---12-11-12---14-|
C-0--0----0-------0--|
G--------------------|
C--------------------|


F-16---14-12-11---12-|-14---12-11-9---9--11-9-7--|
C-0--0----0-------0--|-0--0-------0---0--0-------|
G--------------------|---------------------------|
C--------------------|---------------------------|


F-11---12-14---12-11-|-12---14-16---14-12-|
C-0-------0-------0--|-0-------0-------0--|
G--------------------|--------------------|
C--------------------|--------------------|

F-11---12-14---12-11-|-9---9--11-9-7------|
C-0-------0-------0--|-0---0--0-----------|
G--------------------|--------------------|
C--------------------|--------------------|

F-12---11-9-7--------|-12---11-12-14------|
C-0----0----0--------|-0----0-----0-------| x4
G--------------------|--------------------|
C--------------------|--------------------|


F--------------------|--------------------|
C--------------------|--------------------|
G--------------------|--------------------|
C-0------------------|--------------------|
Добавлено: 07.06.2015
Другие материалы по этой песне:

Страница создана 18.10.2014
http://primanota.ru/mastodon/creature-lives-chords.htm
Привет, Гость.
Предлагаем пройти революционный курс по гитаре.
Подарок от PrimaNota.Ru, забирай!