PrimaNota.ru - самый крупный в мире бесплатный архив песенных текстов, аккордов, табулатур и нот


Mastodon - Burning Man - текст песни, таба, видео

Регистрация Запомнить меня
Войти через:  Facebook Google Twitter Vk Yandex Mail.ru

Mastodon - Burning Man - текст песни, таба, видео

Печатать
Просмотров: 163
Mastodon-Burning Man

Gtr I (D G C F A D) 
Gtr II (D G C F A D) 
 
 h   - hammer-on
 p   - pull-off
 b   - bend
 pb  - pre-bend
 r   - bend release (if no number after the r, then release immediately)
 /\  - slide into or out of (from/to "nowhere")
 s   - legato slide
 S   - shift slide
 - natural harmonic
[n]  - artificial harmonic
n(n) - tapped harmonic
 ~   - vibrato
 tr  - trill
 T   - tap
 TP  - trem. picking
 PM  - palm muting
\n/  - tremolo bar dip; n = amount to dip
 \n  - tremolo bar down
 n/  - tremolo bar up
/n\  - tremolo bar inverted dip
 =   - hold bend; also acts as connecting device for hammers/pulls
 <> - volume swell (louder/softer)
 x   - on rhythm slash represents muted slash
 o   - on rhythm slash represents single note slash

 Intro
 4/4
|-------------------------|-------------------------|
|-------------------------|-------------------------|
|-------------------6S7-6-|-------------------6S7-6-|
|-4S5-4-(4)-4-7S9-7-4S5-4-|-4S5-4-(4)-4-7S9-7-4S5-4-|
|-2S3-2-(2)-2-5S7-5-4S5-4-|-2S3-2-(2)-2-5S7-5-4S5-4-|
|-2S3-2-(2)-2-5S7-5-------|-2S3-2-(2)-2-5S7-5-------|

                                                        x4
||--------------------------|---------------------------||
||o-------------------------|--------------------------o||
||--------------------6S7-6-|-------------------6S7-6---||
||--4S5-4-(4)-4-7S9-7-4S5-4-|-4S5-4-(4)-4-7S9-7-4S5-4---||
||o-2S3-2-(2)-2-5S7-5-4S5-4-|-2S3-2-(2)-2-5S7-5-4S5-4--o||
||--2S3-2-(2)-2-5S7-5-------|-2S3-2-(2)-2-5S7-5---------||


||--------------------------|---------------------------||
||o-------------------7h8p7-|-------------------7h8p7--o||
||--4h5p4-(4)-4-7h9p7-6-7-6-|-4h5p4-(4)-4-7h9p7-6-7-6---||
||--4-5-4-(4)-4-7-9-7-------|-4-5-4-(4)-4-7-9-7---------||
||o-------------------------|--------------------------o||
||--------------------------|---------------------------||

   6/4                                       x4
||-------------------------------------------||
||o-----------------------------------------o||
||--7-------------7S9S7-4-------------4S5S4--||
||-------------------------------------------||
||o-5-x-x-x-x-x-x-5S7S5-2-x-x-x-x-x-x-2S3S2-o||
||----x-x-x-x-x-x---------x-x-x-x-x-x--------||

||----------------------------------------------||
||o--------------------------------------------o||
||--7--------------7S=9S=7-4-------------4S5S4--||
||----------------------------------------------||
||o-5-x-x-x-x-x-x--5S=7S=5-2-x-x-x-x-x-x-2S3S2-o||
||----x-x-x-x-x-x------------x-x-x-x-x-x--------||
|
||----------------------------------------------||
||o--------------------------------------------o||
||--7-------------11S13S11-8-------------4S5S4--||
||----------------------------------------------||
||o-5-x-x-x-x-x-x--9S11S=9-6-x-x-x-x-x-x-2S3S2-o||
||----x-x-x-x-x-x------------x-x-x-x-x-x--------||

   Verse
||-------------------------------|-------------------------------------|
||o------------------------------|-------------------------------------|
||--12-12-12-12-11-9-------------|-12-12-12-12-15-15-------------------|
||-------------------9-9-9-9-9-9-|--------------------8--8--8--8--8--8-|
||o-10-10-10-10--9-7-------------|-10-10-10-10-13-13-------------------|
||-------------------7-7-7-7-7-7-|--------------------6--6--6--6--6--6-|
|
||-------------------------------|-------------------------------------|
||o------------------------------|-------------------------------------|
||--12-12-12-12-11-9-------------|-16-16-16-16-19-19-15-15-15-15-15-15-|
||-------------------9-9-9-9-9-9-|-------------------------------------|
||o-10-10-10-10--9-7-------------|-14-14-14-14-17-17-13-13-13-13-13-13-|
||-------------------7-7-7-7-7-7-|-------------------------------------|

                                3/4
|------------------------------|-------------------|
|------------------------------|-------------------|
|-12-12-12-12-11-9-------------|-12-12-12-12-15-15-|
|------------------9-9-9-9-9-9-|-------------------|
|-10-10-10-10--9-7-------------|-10-10-10-10-13-13-|
|------------------7-7-7-7-7-7-|-------------------|
|
|------------------------------|-------------------|
|------------------------------|-------------------|
|-12-12-12-12-11-9-------------|-16-16-16-16-19-19-|
|------------------9-9-9-9-9-9-|-------------------|
|-10-10-10-10--9-7-------------|-14-14-14-14-17-17-|
|------------------7-7-7-7-7-7-|-------------------|

 Chorus
 6/4
||--------------------------------------|---------------------------------------||
||o-------------------------------------|--------------------------------------o||
||--------------------------------------|---------------------------------------||
||--4-4-4-4-4-7-7-7-7-7-4-4-4-4-4-8-8-5-|-4-4-4-4-4-7-7-7-7-7-4-4-4-4-4--8-7-5--||
||o-------------------------------------|--------------------------------------o||
||--2-2-2-2-2-5-5-5-5-5-2-2-2-2-2-6-6-3-|-2-2-2-2-2-5-5-5-5-5-2-2-2-2-2--6-5-3--||
|
||--------------------------------------|---------------------------------------||
||o-------------------------------------|--------------------------------------o||
||--------------------------------------|-6-6-6-6-6-9-9-9-9-9-6-6-6-6-6-10-9-7--||
||--4-4-4-4-4-7-7-7-7-7-4-4-4-4-4-8-8-5-|---------------------------------------||
||o-------------------------------------|-4-4-4-4-4-7-7-7-7-7-4-4-4-4-4--8-7-5-o||
||--2-2-2-2-2-5-5-5-5-5-2-2-2-2-2-6-6-3-|---------------------------------------||

Intro

Verse

Chorus

                       Outro
 4/4
                          PM--------|     PM--------|
|-------------------||--------------------------------|
|-------------------||o-------------------------------|
|-------------------||--------------------------------|
|-4--8-7-5-4--8-7-5-||--2-----------------------------|
|-------------------||o-2-------------0h2-------------|
|-2--6-5-3-2--6-5-3-||--0-0-0-0-0-0-0-----0-0-0-0-0-0-|
|
|                         PM--------|     PM--------|
|-------------------||--------------------------------|
|-------------------||o-------------------------------|
|-6-10-9-7-6-10-9-7-||--------------------------------|
|-------------------||--2-----------------------------|
|-4--8-7-5-4--8-7-5-||o-2-------------0h2-------------|
|-------------------||--0-0-0-0-0-0-0-----0-0-0-0-0-0-|

 5/8
    PM|   PM|
                 8x
|----------------||-------*|
|---------------o||-------*|
|----------------||-------*|
|----------------||-------*|
|-5-----4-----3-o||-2-----*|
|-3-0-0-2-0-0-1--||-0-----*|








 h   - hammer-on
 p   - pull-off
 b   - bend
 pb  - pre-bend
 r   - bend release (if no number after the r, then release immediately)
 /\  - slide into or out of (from/to "nowhere")
 s   - legato slide
 S   - shift slide
 - natural harmonic
[n]  - artificial harmonic
n(n) - tapped harmonic
 ~   - vibrato
 tr  - trill
 T   - tap
 TP  - trem. picking
 PM  - palm muting
\n/  - tremolo bar dip; n = amount to dip
 \n  - tremolo bar down
 n/  - tremolo bar up
/n\  - tremolo bar inverted dip
 =   - hold bend; also acts as connecting device for hammers/pulls
 <> - volume swell (louder/softer)
 x   - on rhythm slash represents muted slash
 o   - on rhythm slash represents single note slash



Добавлено: 29.07.2013
Другие материалы по этой песне:
  • Аккорды и текст

Страница создана 04.07.2012
http://primanota.ru/mastodon/burning-man-chords.htm
Привет, Гость.
Предлагаем пройти революционный курс по гитаре.
Подарок от PrimaNota.Ru, забирай!