PrimaNota.ru - самый крупный в мире бесплатный архив песенных текстов, аккордов, табулатур и нот


Mastifal - En Las Entraas Del Apocalipsis - таба, видео

Регистрация Запомнить меня
Войти через:  Facebook Google Twitter Vk Yandex Mail.ru

Mastifal - En Las Entraas Del Apocalipsis - таба, видео

Печатать
Просмотров: 76
-------------------------------------------------------------------------
	Artista :  MASTIFAL
	   Tema :  En Las Entrañas Del Apocalipsis (solo intro y 1º riff)
	  Album :  Desde Las Tinieblas
            Web :  http://www.mastifal.com.ar
-------------------------------------------------------------------------
		 _____________________________________
		|    Tab Hecho Por Esteban (BrOoD)    |
		|    the4horsemen[at]gmail[dot]com    |
		 -------------------------------------
	x3 = 3 veces se repite el pedacito marcado

NOTA:   La tablatura fue hecha solo para fines educativos si se quiere, 
	no representan 100% exacto el tema original, pero puede ser 
	tomado en cuenta como una aproximación a la verdadera forma 
	de tocar este tema. Tengo en cuenta una sola guitarra 
	(de 6 cuerdas no de 7), la otra sáquenla ustedes. 

NOTA2:  Los Palm Mute sáquenlos ustedes también.

----------------------------------------------------------------------
 _______
| INTRO |
 -------

Nota: Toda la intro se repite 3 veces (x3)

|------------------|--------------------------------------------------------|
|------------------|--------------------------------------------------------|
|------------------|--------------------------------------------------------|
|------------------|--14-14-14-14----12-12-12-12----10-10-10-10----9-9-9~---|
|------------------|--------------------------------------------------------|
|---0000000000000--|--------------------------------------------------------|



|---------------------|----------------------------------------------------------------|
|---------------------|----------------------------------------------------------------|
|---------------------|-----------------------------------------------12-12-12-12-12---|
|---------------------|--14-14-14-14----12-12-12-12----10-10-10-10---------------------|
|---------------------|----------------------------------------------------------------|
|---0--000--0--00000--|----------------------------------------------------------------|



|---------------------|--------------------------------------------------------|
|---------------------|--------------------------------------------------------|
|---------------------|--------------------------------------------------------|
|---------------------|--14-14-14-14----12-12-12-12----10-10-10-10----9-9-9~---|
|---------------------|--------------------------------------------------------|
|---0--000--0--00000--|--------------------------------------------------------|



|------------------------------------------|
|------------------------------------------|
|--------------------------------------7---|
|--------------------------------------7---|
|---------------------9----7----5----5-5---|
|---0--000--0--000000---00---00---00-------|


(hasta aca 3 veces todo)

Nota:   Esta primer parte se puede hacer con string skipping, pero me pareció
	ponerlo así para que sea más fácil (en vez de ir al 14, seria el 9 de
	la cuerda de abajo, no se si me explico).

|-----------------------------------------------------------|
|-----------------------------------------------------------|
|-----------------------------------------------------------|
|------------------------------------10-9-------9-----------|
|------10---9---12---10---14---12---------12-10---12-10-9---|
|---00----0---0----0----0----0----0-------------------------|


|---------------------------------------|
|---------------------------------------|
|---------------------------------------|
|---------------------------------------|
|------10---9---10---12---10---9---10~--|
|---00----0---0----0----0----0---0------|

|---------------------------------------|
|---------------------------------------|
|---------------------------------------|
|---------------------------------------|
|------10---9---10---12---10---9---10~--|
|---00----0---0----0----0----0---0------|


|-----------------------------------------------------------|
|-----------------------------------------------------------|
|-----------------------------------------------------------|
|------------------------------------10-9-------9-----------|
|------10---9---12---10---14---12---------12-10---12-10-9---|
|---00----0---0----0----0----0----0-------------------------|


|-----------------------------------------------------------|
|-----------------------------------------------------------|
|-----------------------------------------------------------|
|------------------------------------10-9-------9-----------|
|------10---9---12---10---14---12---------12-10---12-10-9---|
|---00----0---0----0----0----0----0-------------------------|


|---------------------------------------|
|---------------------------------------|
|---------------------------------------|
|---------------------------------------|
|------10---9---10---12---10---9---10~--|
|---00----0---0----0----0----0---0------|

|---------------------------------------|
|---------------------------------------|
|---------------------------------------|
|---------------------------------------|
|------10---9---10---12---10---9---10~--|
|---00----0---0----0----0----0---0------|


			  _____
			 | FIN |
			  -----
Добавлено: 15.05.2012
Другие материалы по этой песне:
  • Аккорды и текст

Страница создана 15.05.2012
http://primanota.ru/mastifal/en-las-entraas-del-apocalipsis-chords.htm
Привет, Гость.
Предлагаем пройти революционный курс по гитаре.
Подарок от PrimaNota.Ru, забирай!