PrimaNota.ru - самый крупный в мире бесплатный архив песенных текстов, аккордов, табулатур и нот


Masters Apprentices - Think About Tommorrow Today - аккорды и текст, видео

Регистрация Запомнить меня
Войти через:  Facebook Google Twitter Vk Yandex Mail.ru

Masters Apprentices - Think About Tommorrow Today - аккорды и текст, видео

Печатать
Просмотров: 106
Уроки эстрадного вокала в Санкт-Петербурге
Think About Tommorrow Today
Masters Apprentices
SONG:   THINK ABOUT TOMORROW TODAY
ARTIST: THE MASTER'S APPRENTICES
TAB BY: DON CZARSKI
EMAIL:  GUITARZAN7@HOTMAIL.COM

             THINK ABOUT TOMORROW TODAY
              THE MASTER'S APPRENTICES


INTRO:
   A                 A
E -----------------|-----------------|
B -5/7-7-7-7-7-----|-5/7-7-7-7-7-----|
G -5/7-7-7-7-7-5---|-5/7-7-7-7-7-5---|
D ---------------7-|---------------7-|
A -----------------|-----------------|
E -----------------|-----------------|
 
   A
E ---------------------------------------|
B -5/7-7-7-7-7-7-7-7-7-7---5---5---5---5-|
G -5/7-7-7-7-7-7-7-7-7-7-7b--7b--7b--7b--|
D ---------------------------------------|
A ---------------------------------------|
E ---------------------------------------|


VERSE:
 D                                      A (FILL 1)
Come with us, we're goin' to take you away

               FILL 1 
E ---------------|---------------|
B -5/7-----------|-5/7-----------|
G -5/7-7-7-7-5---|-5/7-7-7-7-5---|
D -------------7-|-------------7-|
A ---------------|---------------|
E ---------------|---------------|


 D                (FILL 2)                            
Make up your mind, 

   FILL 2
E --------
B -5/7-5--
G -5/7-5--
D --------
A --------
E --------

                            A  (FILL 1 - VARIATION)
You know we're leavin' to stay

          FILL 1 - VARIATION 
E -7br-7-5-------|-7br-7-5-5-----|
B ---------7-----|---------------|
G ---------------|---------------|
D ---------------|---------------|
A ---------------|---------------|
E ---------------|---------------|


E        D             C#         B      F# E   D A
  We'll take you to a brave new world tomorrow


VERSE:
D           (FILL 2)                A (FILL 1)
Oh we realize,     a revolution is here
D           (FILL 2)                     A (FILL 1)
Do you realize,    it's the end of our fears 
E        D          C#         B      F# E   D A
  We're goin' to a brave new world tomorrow


CHORUS:
D  B A D (FILL 3)              A
         What we're trying to say,

               FILL 3 
         E --------------
         B -7-7-7-10-5b--
         G --------------
         D --------------
         A --------------
         E --------------

  E (FILL 4)
Think About Tomorrow Today

       FILL 4 
E ------------------|
B -5-5-5-7-9-7-5-9--|
G ------------------|
D ------------------|
A ------------------|
E ------------------|

  E (FILL 4)
Think About Tomorrow Today

       FILL 4 
E ------------------|
B -5-5-5-7-9-7-5-9--|
G ------------------|
D ------------------|
A ------------------|
E ------------------|

 A          
Ooh ah 
    C
Ooh ah
 A
Ooh ah 
    C
Ooh ah


D D (FILL 5)                         F
    Well what we're trying to get through

            FILL 5
    E -------------------
    B -------------------
    G -7-7-10-10-7-5-7---
    D -------------------
    A -------------------
    E -------------------

E E (FILL 6)       G
    We can all be cool 
         E         D        E
It's a brave new world for you

               FILL 6
E ---------------------------------
B ---------------------------------
G -7-7-10-10-7-5--7-7-10-7-5-7-10--
D ---------------------------------
A ---------------------------------
E ---------------------------------


VERSE:
D           (FILL 2)                    A  (FILL 1) 
If we unite,       we can all live in peace
 D          (FILL 2)                         A  (FILL 1)
Today we ate,      you know tomorrow we'll feast
E  D               C#         B      F# E   D A
  Let's go to our brave new world tomorrow


CHORUS:
D B A D (FILL 3)              A
        What we're trying to say,
  E (FILL 4)
Think About Tomorrow Today
  E (FILL 4)
Think About Tomorrow Today
 A          
Ooh ah 
    C
Ooh ah
 A
Ooh ah 
    C
Ooh ah
D D (FILL 5)                   F
    What we're trying to get through
E E (FILL 6)       G
    We can all be cool 
         E         D        E   A
It's a brave new world for you  


INSTRUMENTAL/SOLO:
D  A   D  A   
E  D  C#  B   F# E   D A 


CHORUS:
D B A D (FILL 3)              A
        What we're trying to say,
  E (FILL 4)
Think About Tomorrow Today
  E (FILL 4)
Think About Tomorrow Today
 A          
Ooh ah 
    C
Ooh ah
 A
Ooh yeah
    C
Ooh ah
D D (FILL 5)                    F
    What we're trying to get through
E E (FILL 6)       G
    We can all be cool 
         E         D        E
It's a brave new world for you, uhhh


============== SONG WITHOUT FILLS =================


SONG:   THINK ABOUT TOMORROW TODAY
ARTIST: THE MASTER'S APPRENTICES
TAB BY: DON CZARSKI
EMAIL:  GUITARZAN7@HOTMAIL.COM


             THINK ABOUT TOMORROW TODAY
              THE MASTER'S APPRENTICES

INTRO:
A A A


VERSE:
 D                                      A
Come with us, we're goin' to take you away
 D                                            A
Make up your mind, you know we're leavin' to stay
E        D             C#         B      F# E   D A
  We'll take you to a brave new world tomorrow
D                               A
Oh we realize, a revolution is here
D                                     A
Do you realize, it's the end of our fears 
E        D          C#         B      F# E   D A
  We're goin' to a brave new world tomorrow


CHORUS:
D  B A D                       A
         What we're trying to say,
  E
Think About Tomorrow Today
  E
Think About Tomorrow Today
 A          
Ooh ah 
    C
Ooh ah
 A
Ooh ah 
    C
Ooh ah
D D                                 F
    Well what we're trying to get through
E E                G
    We can all be cool 
        E          D        E
It's a brave new world for you


VERSE:
D                                 A
If we unite, we can all live in peace
 D                                      A
Today we ate, you know tomorrow we'll feast
E  D               C#         B      F# E   D A
  Let's go to our brave new world tomorrow


CHORUS:
D B A D                       A
        What we're trying to say,
  E
Think About Tomorrow Today
  E
Think About Tomorrow Today
 A          
Ooh ah 
    C
Ooh ah
 A
Ooh ah 
    C
Ooh ah
D D                             F
    What we're trying to get through
E E                G
    We can all be cool 
        E          D        E   A
It's a brave new world for you  


INSTRUMENTAL/SOLO:
D  A   D  A   
E  D  C#  B   F# E   D A 


CHORUS:
D B A D                       A
        What we're trying to say,
  E
Think About Tomorrow Today
  E
Think About Tomorrow Today
 A          
Ooh ah 
    C
Ooh ah
 A
Ooh yeah
    C
Ooh ah
D D                             F
    What we're trying to get through
E E                G
    We can all be cool 
         E         D        E
It's a brave new world for you, uhhh

Добавлено: 12.11.2015
Другие материалы по этой песне:
  • Аккорды и текст

Страница создана 12.11.2015
http://primanota.ru/masters-apprentices/think-about-tommorrow-today-chords.htm
Привет, Гость.
Предлагаем пройти революционный курс по гитаре.
Подарок от PrimaNota.Ru, забирай!