PrimaNota.ru - самый крупный в мире бесплатный архив песенных текстов, аккордов, табулатур и нот


Masterplan - Sail On - текст песни, таба, видео

Регистрация Запомнить меня
Войти через:  Facebook Google Twitter Vk Yandex Mail.ru

Masterplan - Sail On - текст песни, таба, видео

Печатать
Просмотров: 306
========================== Masterplan - Sail On ==========================
==                                                                      ==
==                           Tabbed by: UsPeit                          ==
==                      E-mail: eitan.lp@gmail.com                      ==
==                                                                      ==
==                       Tuning: Standard E tuning                      ==
==                             _____________                            ==
==                            |             |                           ==
==                            | * Palm mute |                           ==
==                            | h hammer-on |                           ==
==                            | / slide     |                           ==
==                            |_____________|                           ==
==                                                                      ==
==========================================================================


E|------------------Tabbed-By-UsPeit-----------------|
B|-----13-11----------------------13-11--------------|
G|--10-------12-13-10-12-------10-------12-13-10-12--|
D|-----------------------13--------------------------|
A|---------------------------------------------------|
E|---------------------------------------------------|

E|------------------------------------------------------------|
B|-----13-11----------------------13-11-13-14-13-11-----------|
G|--10-------12-13-10-12-------10-------------------13-12-10--|
D|-----------------------13-----------------------------------|
A|------------------------------------------------------------|
E|------------------------------------------------------------|


E|-----------------------------------11--11/13----------------|
B|---------11-------13------14--------------------------------|
G|--10-10----10-10----10-10----10-10--------------------------|
D|------------------------------------------------------------|
A|------------------------------------------------------------|
E|------------------------------------------------------------|
     *  *     *  *     *  *     *  *

Verse:
E|------------------------------------------------------------|
B|------------------------------------------------------------|
G|------------------------------------------------------------|
D|--------------7---------------------------------------------|
A|--4-----------5--------5h7--7----7-10--------4--------------|
E|--2----2-4-5-------5h7------5----5-8-----5-4-2--------------|
         * * *                             * *
Добавлено: 17.05.2012
Другие материалы по этой песне:

Страница создана 17.05.2012
http://primanota.ru/masterplan/sail-on-chords.htm
Привет, Гость.
Предлагаем пройти революционный курс по гитаре.
Подарок от PrimaNota.Ru, забирай!