PrimaNota.ru - самый крупный в мире бесплатный архив песенных текстов, аккордов, табулатур и нот


Master Shortie - Dead End - таба, видео

Регистрация Запомнить меня
Войти через:  Facebook Google Twitter Vk Yandex Mail.ru

Master Shortie - Dead End - таба, видео

Печатать
Просмотров: 95
http://www.myspace.com/mastershortie

hey this i my version of dead end by master shortie
i noticed that no one has tabbed any of his stuff
and ive been playing this for a while so i decided to
tab it all comments are welcome and plz rate :)

its in standard tunning

here goes

intro/verse
|----------------------------|
|--14-16-1818--14-16-1313----|
|--13-13-1313--13-13-1313----|
|--13-13-1313--13-13-1313----|
|----------------------------|
|----------------------------|

chorus
|----------------------------|
|----------------------------|
|-----11-11-88-55------------|
|--88-11-11-88-55------------|x2
|--88--9-9--66-33------------|
|--66------------------------|
strum C on 2nd time

1st time
|-----------------------------------------------------|
|-----------------------------------------------------|
|------6-6--11-11---11-11-10-88--6-6-8-55---5/8-------|
|--88-8---8-11-11-11---------88-8------55--5----------|
|--88--------9-9-------------66--------33-3-----------|
|--66-------------------------------------------------|

2nd time
|-----------------------------------------------------|
|-----------------------------------------------------|
|------6-6--11-11---11-11-10-88--6-8-10-55555555------|
|--88-8---8-11-11-11---------88-8-------55555555------|
|--88--------9-9-------------66---------33333333------|
|--66-------------------------------------------------|

verse
|----------------------------|
|--14-16-1818--14-16-1313----|
|--13-13-1313--13-13-1313----|
|--13-13-1313--13-13-1313----|
|----------------------------|
|----------------------------|

lead bit im not sure bout but
i play
|----------------------------|
|--14b15r14p12---------------|
|-------------14p12----------|
|------------------14p12-----|
|----------------------------|
|----------------------------|

i kno u like electro bit is
|-------------------------------------|
|----xx16-18--xx14-16-----------------|
|--15-------13-------xxxxxxxxxxxxxxx--|
|-------------------------------------|
|-------------------------------------|
|-------------------------------------|
play this with a phaser or somethin
and when u play the x's on G string 
move up and down the neck it gives it 
that sound

endwith
|----------------|
|--14-16-1313----|
|--13-13-1313----|
|--13-13-1313----|
|----------------|
|----------------|

chorus
|----------------------------|
|----------------------------|
|-----11-11-88-55------------|
|--88-11-11-88-55------------|x2
|--88--9-9--66-33------------|
|--66------------------------|
strum C on 2nd time

1st time
|-----------------------------------------------------|
|-----------------------------------------------------|
|------6-6--11-11---11-11-10-88--6-6-8-55---5/8-------|
|--88-8---8-11-11-11---------88-8------55--5----------|
|--88--------9-9-------------66--------33-3-----------|
|--66-------------------------------------------------|

2nd time
|-----------------------------------------------------|
|-----------------------------------------------------|
|------6-6--11-11---11-11-10-88--6-8-10-55555555------|
|--88-8---8-11-11-11---------88-8-------55555555------|
|--88--------9-9-------------66---------33333333------|
|--66-------------------------------------------------|

verse
|----------------------------|
|--14-16-1818--14-16-1313----|
|--13-13-1313--13-13-1313----|
|--13-13-1313--13-13-1313----|
|----------------------------|
|----------------------------|

half way through
|----------------------------|
|----------------------------|
|--------11---55555555-------|
|--88-x3-11-8-55555555-------|
|--88----9--8-33333333-------|
|--66-------6----------------|

verse
|----------------------------|
|--14-16-1818--14-16-1313----|
|--13-13-1313--13-13-1313----|
|--13-13-1313--13-13-1313----|
|----------------------------|
|----------------------------|

chorus
|----------------------------|
|----------------------------|
|-----11-11-88-55------------|
|--88-11-11-88-55------------|x2
|--88--9-9--66-33------------|
|--66------------------------|
strum C on 2nd time

play this to finish
|----------------------------|
|--14-16-1818--14-16-1313----|
|--13-13-1313--13-13-1313----|
|--13-13-1313--13-13-1313----|
|----------------------------|
|----------------------------|

thats it hope u hve fun playing it all comment are welcome 
and plz rate :)

Добавлено: 18.07.2012
Вам также может быть интересно:
Другие материалы по этой песне:
  • Аккорды и текст

Страница создана 18.07.2012
http://primanota.ru/master-shortie/dead-end-chords.htm
Привет, Гость.
Предлагаем пройти революционный курс по гитаре.
Подарок от PrimaNota.Ru, забирай!