PrimaNota.ru - самый крупный в мире бесплатный архив песенных текстов, аккордов, табулатур и нот


Mastedon - Its A Jungle Out There - таба, видео

Регистрация Запомнить меня
Войти через:  Facebook Google Twitter Vk Yandex Mail.ru

Mastedon - Its A Jungle Out There - таба, видео

Печатать
Просмотров: 163
Intro to:
			  IT'S A JUNGLE OUT THERE
				by Mastedon
			from It's a Jungle Out There
			  transribed by:  WAR AXE
LEGEND:
e|----------------------------------|   /  slide up       \  slide down
B|----------------------------------|   x  palm mute      *  finger mute 
G|----------------------------------|   h  hammer-on      p  pull-off
D|----------------------------------|   ~  vibrato (with bar where noted) 
A|----------------------------------|   b(12)  bend to (fret)
E|----------------------------------|   +  natural harmonic 
   " " " " " " " " " " " " " " " "      =  "pinch" harmonic 
'EACH " REPRESENTS A 16th               ^  staccato
  NOTE IN THE MEASURE'                  


    tempo=128 [Use Heavy Distortion]
e|----------------------------------|----------------------------------|
B|----------------------------------|----------------------------------|
G|----------------------------/9----|----------------------------------|
D|-2h4------------------------/9----|-7-----6----/9-------7---6---5----|
A|-2h4------------------------------|-7-----6----/9-------7---6---5----|
E|-2-2-2-2-2-2-2-2-2-2-2-2-2-2------|----------------------------------|
       x x x x x x x x x x x x 


e|----------------------------------|----------------------------------|
B|----------------------------------|----------------------------------|
G|----------------------------------|-9-9-----6------------------------|
D|-2h4------------------------------|-9-9-----6-----9----\7--/9--\7----|
A|-2h4------------------------------|-7-7-----4-----9----\7--/9--\7----|
E|-2-2-2-2-2-2-2-2-2-2-2-2-2-2-2-2--|---------------7----\5--/7--\5----|
       x x x x x x x x x x x x x x             


e|----------------------------------|----------------------------------|
B|----------------------------------|----------------------------------|
G|------------------/9---9---9---9--|----------------------------------|
D|-2h4--------------/9---9---9---9--|-7-----6----/9-------7---6---5----|
A|-2h4------------------------------|-7-----6----/9-------7---6---5----|
E|-2-2-2-2-2-2-2-2-2----------------|----------------------------------|
       x x x x x x x ^   ^   ^   


e|----------------------------------|----------------------------------|
B|----------------------------------|----------------------------------|
G|----------------------------------|-9-9-----6------------------------|
D|-2h4------------------------------|-9-9-----6-----9----\7--/9--\7----|
A|-2h4------------------------------|-7-7-----4-----9----\7--/9--\7----|
E|-2-2-2-2-2-2-2-2-2-2-2-2-2-2-2-2--|---------------7----\5--/7--\5----|
       x x x x x x x x x x x x x x             


REPEAT till your happy  :)





     
Добавлено: 03.08.2013
Вам также может быть интересно:
Другие материалы по этой песне:
  • Аккорды и текст

Страница создана 03.08.2013
http://primanota.ru/mastedon/its-a-jungle-out-there-chords.htm
Привет, Гость.
Предлагаем пройти революционный курс по гитаре.
Подарок от PrimaNota.Ru, забирай!