PrimaNota.ru - самый крупный в мире бесплатный архив песенных текстов, аккордов, табулатур и нот


Massimo Morsello - Il Nostro Povero Cuore - аккорды и текст, видео

Регистрация Запомнить меня
Войти через:  Facebook Google Twitter Vk Yandex Mail.ru

Massimo Morsello - Il Nostro Povero Cuore - аккорды и текст, видео

Печатать
Просмотров: 100
Уроки эстрадного вокала в Санкт-Петербурге
Il Nostro Povero Cuore
Massimo Morsello
Massimo Morsello - Il nostro povero cuore


Basic Riff:
       G              D            C              D
e|-----3---3-3--3-3-3-2-2-2-3------3---3-3--3-3-3-2-2-2-3--------------------------|
B|-----3---3-3--3-3-3-3-3-3-3------3---3-3--3-3-3-3-3-3-3--------------------------|
G|-----0---0-0--0-0-0-2-2-2-2------0---0-0--0-0-0-2-2-2-2--------------------------|
D|-----0---0-0--0-0-0-0-0-0-0------2---2-2--2-2-2----------------------------------|
A|-----2---2-2--2-2-2--------------3---3-3--3-3-3----------------------------------|
E|-----3---3-3--3-3-3--------------------------------------------------------------|


G   D  C   D

      G            D        C     D
Cuori infranti, da storie banali,
         G         D            C     D
Tutti in fila, tra chiese e ospedali, 
      G         D          C    D
Occhi fatti, da rimmel e caffè,
      G              D       C     D
cuori gonfi, senza sapere di che

       G           D           C     D
Per la strada, tra violini e carezze 
        G              D       C       D
Stracci vecchi, a rievocare tristezze. 


Am 
E se oggi hai perso il tram
                  D
Pieno di gente di tanto diverso colore 
Am
Ed hai negato i tuoi occhi 
                  D
Tra le pagine dei tuoi libri in cerca d'autore
                 G      D  C
E del tuo povero cuore
          D       G      D        C     D
E del tuo povero cuore. 

    
       G               D             C     D
Quei pirati, svelti di lingua e di saliva 
      G           D          C     D
Un sorriso, mezzo dente e gengiva 
      G             D           C     D
Sanno sempre perché tutto è successo 
        G               D             C      D
Pollici verdi, della cultura e del progresso. 


Am
E se oggi hai consegnato il tuo cuore ad un fiume
   D
Di versetti e di stravaganti parole 
Am
Concordando la tua morale, 
                         D
Con l'autore della prima pagina di qualsiasi giornale 
                 G(hold)  D      C    D
E di qualsiasi colore. 

G   D   C  

          D      G       D       C    D   
E il loro povero cuore. 

G   D   C   

            D      G        D      C    D
E il nostro povero cuore.

          G                 D         C     D
Ed i tuoi occhi, intorno al mondo che perdi 
      G               D                C     D
non è colpa dei prati che non sono più verdi. 

Am
Ma se oggi hanno persuaso i tuoi sogni
           D
E che tuoi sogni che non hanno covato passione 
Am
Ti hanno corrotto la storia ed i ricordi 
            D
Ti hanno mandato la fede in pensione
                 G        D   C    
Ed il tuo povero cuore. 
          D      G        D      C    
Il nostro povero cuore.
          D      G        D      C    
Il nostro povero cuore. 
          D      G        D      C    D
Il nostro povero cuore. 

G     D   C    D

G


Play during outro:

     G                       D          C               D
e|---7------7------7----7-----10----10------------------10-----10-----10-----|
B|-----8------8-----------8-----8----------8-----8---8-----8------8----------|
G|-------7------7-----------7-----7------9---9-9---9---------7------7--------|
D|---------------------------------------------------------------------------|
A|---------------------------------------------------------------------------|
E|---------------------------------------------------------------------------|
Добавлено: 15.11.2013
Другие материалы по этой песне:
  • Аккорды и текст

Страница создана 15.11.2013
http://primanota.ru/massimo-morsello/il-nostro-povero-cuore-chords.htm
Привет, Гость.
Предлагаем пройти революционный курс по гитаре.
Подарок от PrimaNota.Ru, забирай!