PrimaNota.ru - самый крупный в мире бесплатный архив песенных текстов, аккордов, табулатур и нот


Massacre - Warhead - текст песни, таба, видео

Регистрация Запомнить меня
Войти через:  Facebook Google Twitter Vk Yandex Mail.ru

Massacre - Warhead - текст песни, таба, видео

Печатать
Просмотров: 31
Artist: Massacre
Song: Warhead
Album: From Beyond
Year: 1991
Tabbed by: antichris666

Tuning: D Tuning

 Intro
e|---------------------------------------------------------------------------------|
B|---------------------------------------------------------------------------------|
G|----------8-7-6--------------8-7-6----------------8-7-6--------------8-7-6-------|
D|-9------9--------7----9----9--------7----9------9--------7----9----9--------7----|
A|-7----7---------------7------------------7----7---------------7------------------|
E|-0--------------------0------------------0--------------------0------------------|


 Chorus
e|------------------------------------------------------------------------|
B|------------------------------------------------------------------------|
G|------------------------------------------------------------------------|
D|--------3-3-4-------------------------------3-3-4-----------------------|
A|-4--3---1-1-2--5----3-3-3-3-3-3-3-3--4--3---1-1-2--5----3-3-3-3-3-3-3-3-|
E|-2--1----------3----1-1-1-1-1-1-1-1--2--1----------3----1-1-1-1-1-1-1-1-|
                      · · · · · · · ·                     · · · · · · · ·
   Warhead!                            Warhead!


 Verse
e|------------------------------------------------------------------------------|
B|------------------------------------------------------------------------------|
G|------------------------------------------------------------------------------|
D|--------------4-5------------------------------------4-5----------------------|
A|------5-7-----------------3-5----------------5-7-----------------3-5----------|
E|-0-0-------0-------0-0-0-------0--3-2---0-0-------0-------0-0-0-------0--3-2--|
   · ·       ·       · · ·       ·        · ·       ·       · · ·       ·


 Outro
e|------------------|
B|------------------|
G|------------------|
D|------------------|
A|-2----2----2----2-|
E|-0----0----0----0-|


 
 Warhead - hear the thunder roar
 Warhead - unite the lightning whore

 Power burning - hell & man
 raging torment - take my hand
 frenzied motions - reach your soul
 dance the warhead - fast or slow

 Warhead - hear the thunder roar
 warhead - unite the lightning whore

 Born of thunder
 raised by fire
 call the heavens
 by desire

 Warhead - hear the thunder roar
 Warhead - unite the lightning whore

 Screaming furnace - death of life
 demons calling - chosen wives
 sabbats charming - out in lust
 chance the warhead - win or bust

 Warhead - hear the thunder roar
 Warhead - unite the lightning whore
 Warhead - engraved on flesh & bone
 Warhead - born of mortal stone


************************************

| ·   palm mute
| /   slide up
| \   slide down
| h   hammer-on
| p   pull-off
| ~   vibrato
| +   harmonic
| x   Mute note
| b   Bend
| pb  Pre-bend
| br  Bend release
| pbr Pre-bend release
| brb Bend release bend

************************************
Добавлено: 23.04.2016
Другие материалы по этой песне:
  • Аккорды и текст

Страница создана 06.09.2013
http://primanota.ru/massacre/warhead-chords.htm
Привет, Гость.
Предлагаем пройти революционный курс по гитаре.
Подарок от PrimaNota.Ru, забирай!