PrimaNota.ru - самый крупный в мире бесплатный архив песенных текстов, аккордов, табулатур и нот


Massacre - Corpse Grinder - текст песни, таба, видео

Регистрация Запомнить меня
Войти через:  Facebook Google Twitter Vk Yandex Mail.ru

Massacre - Corpse Grinder - текст песни, таба, видео

Печатать
Просмотров: 82
Artist: Massacre 
Song: Corpse Grinder
Album: From Beyond

Tabbed by:chris

Tuning:D standard 

e|--------------------------------|
B|--------------------------------|
G|--------------------------------|
D|--------------------------------|
A|------------------------5-3-5---|
E|00000000000000000000000-3-1-3---|

e|--------------------------------|
B|--------------------------------|
G|--------------------------------|
D|------------------------5-3-5---|
A|00000000000000000000000-3-1-3---|
E|--------------------------------|

e|-------------------------------------|
B|-------------------------------------|
G|-------------------------------------|
D|-------------------------------------|
A|-------------------------------------|
E|00000000-22222222-33333333-55555555--|

e|-------------------------------------|
B|-------------------------------------|
G|-------------------------------------|
D|-------------------------------------|
A|-------------------------------------|
E|00000000-77777777-88888888-33333333--|

e|---------------------------------|
B|---------------------------------|
G|---------------------------------|
D|---------------------------------|
A|-------------------------3-2-3---|
E|000000000000000000000000-1-0-1---|
                     Corpse Grinder!

E|---------------------------------|
B|---------------------------------|
G|---------------------------------|
D|-----------------------------3---|
A|-------------------------3-2-1---|
E|000000000000000000000000-1-0-----|


************************************

| /   slide up
| \   slide down
| h   hammer-on
| p   pull-off
| ~   vibrato
| +   harmonic
| x   Mute note
| b   Bend
| pb  Pre-bend
| br  Bend release
| pbr Pre-bend release
| brb Bend release bend

************************************
Добавлено: 05.11.2015
Другие материалы по этой песне:
  • Аккорды и текст

Страница создана 07.06.2012
http://primanota.ru/massacre/corpse-grinder-chords.htm
Привет, Гость.
Предлагаем пройти революционный курс по гитаре.
Подарок от PrimaNota.Ru, забирай!