PrimaNota.ru - самый крупный в мире бесплатный архив песенных текстов, аккордов, табулатур и нот


Mass Of The Fermenting Dregs - 終わりのはじまり - таба, видео

Регистрация Запомнить меня
Войти через:  Facebook Google Twitter Vk Yandex Mail.ru

Mass Of The Fermenting Dregs - 終わりのはじまり - таба, видео

Печатать
Просмотров: 33
-------------------------------------------------------------------------------
               終わりのはじまり - Mass of the Fermenting Dregs
-------------------------------------------------------------------------------
Tabbed by:UnderTheGates
Tuning:DGCFAd
intro/Verse

d|---------------------------------------------------------------------------------------------|
A|---------------------------------------------------------------------------------------------|
F|--131313131313---131313131313---9/13-13-9/13-13-9/13-13-9/13-14-13-9/13-13-9/13-13-9/13-13---|
C|--111111111111---111111111111---7/11-11-7/11-11-7/11-11-7/11-12-11-7/11-11-7/11-11-7/11-11---|
G|--111111111111---111111111111---7/11-11-7/11-11-7/11-11-7/11-12-11-7/11-11-7/11-11-7/11-11---|
D|---------------------------------------------------------------------------------------------|

d|------------------------------------------------------------------------------------|
A|------------------------------------------------------------------------------------|
F|--9/13-14-13-9/12-12-9/12-12-9/12-12-9/12-13-12-9/12-12-9/12-12-9/12-12-9/12-13-12--|
C|--7/11-12-11-7/10-10-7/10-10-7/10-10-7/10-11-10-7/10-10-7/10-10-7/10-10-7/10-11-10--|
G|--7/11-12-11-7/10-10-7/10-10-7/10-10-7/10-11-10-7/10-10-7/10-10-7/10-10-7/10-11-10--|
D|------------------------------------------------------------------------------------|

d|----------------------------------------------------------------|
A|----------------------------------------------------------------|
F|---9/13-13-9/13-13-9/13-13-9/13-14-13-9/13-13-9/13-13-9/13-13---|
C|---7/11-11-7/11-11-7/11-11-7/11-12-11-7/11-11-7/11-11-7/11-11---|
G|---7/11-11-7/11-11-7/11-11-7/11-12-11-7/11-11-7/11-11-7/11-11---|
D|----------------------------------------------------------------|

d|---------------------------------------------------------------------------------------|
A|---------------------------------------------------------------------------------------|
F|--9/13-14-13-9/12-12-9/12-12-9/12-12-9/12-13-12-9/12-12-9/12-12-9/12-12-9/12-13-12-9---|
C|--7/11-12-11-7/10-10-7/10-10-7/10-10-7/10-11-10-7/10-10-7/10-10-7/10-10-7/10-11-10-7---|
G|--7/11-12-11-7/10-10-7/10-10-7/10-10-7/10-11-10-7/10-10-7/10-10-7/10-10-7/10-11-10-7---|
D|---------------------------------------------------------------------------------------|

d|-------------------------------------------------------------------------------|
A|-------------------------------------------------------------------------------|
F|---131313131313---9/13-13-9/13-13-9/13-13-9/13-14-13-9/13-13-9/13-13-9/13-13---|
C|---111111111111---7/11-11-7/11-11-7/11-11-7/11-12-11-7/11-11-7/11-11-7/11-11---|
G|---111111111111---7/11-11-7/11-11-7/11-11-7/11-12-11-7/11-11-7/11-11-7/11-11---|
D|-------------------------------------------------------------------------------|

d|------------------------------------------------------------------------------------|
A|------------------------------------------------------------------------------------|
F|--9/13-14-13-9/12-12-9/12-12-9/12-12-9/12-13-12-9/12-12-9/12-12-9/12-12-9/12-13-12--|
C|--7/11-12-11-7/10-10-7/10-10-7/10-10-7/10-11-10-7/10-10-7/10-10-7/10-10-7/10-11-10--|
G|--7/11-12-11-7/10-10-7/10-10-7/10-10-7/10-11-10-7/10-10-7/10-10-7/10-10-7/10-11-10--|
D|------------------------------------------------------------------------------------|

d|----------------------------------------------------------------|
A|----------------------------------------------------------------|
F|---9/13-13-9/13-13-9/13-13-9/13-14-13-9/13-13-9/13-13-9/13-13---|
C|---7/11-11-7/11-11-7/11-11-7/11-12-11-7/11-11-7/11-11-7/11-11---|
G|---7/11-11-7/11-11-7/11-11-7/11-12-11-7/11-11-7/11-11-7/11-11---|
D|----------------------------------------------------------------|

d|---------------------------------------------------------------------------------------|
A|---------------------------------------------------------------------------------------|
F|--9/13-14-13-9/12-12-9/12-12-9/12-12-9/12-13-12-9/12-12-9/12-12-9/12-12-9/12-13-12-9---|
C|--7/11-12-11-7/10-10-7/10-10-7/10-10-7/10-11-10-7/10-10-7/10-10-7/10-10-7/10-11-10-7---|
G|--7/11-12-11-7/10-10-7/10-10-7/10-10-7/10-11-10-7/10-10-7/10-10-7/10-10-7/10-11-10-7---|
D|---------------------------------------------------------------------------------------|

d|------------------------------------------------------------------------------------------------------------|
A|------14------------14------------14------------14-----------14-----------14-----------14------------14-----|
F|--14----12-14---14----12-14---14----12-14---14----12-14--14----12-14--14----12-14--14----12-14---14----12-14|
C|12--12--------12--12--------12--12--------12--12-------12--12-------12--12-------12--12--------12--12-------|
G|------------------------------------------------------------------------------------------------------------|
D|------------------------------------------------------------------------------------------------------------|



d|------------------------------------------12h13p12-----------------------------------------12h13p12-----|
A|-------14------------14-----------14--------------14------14-----------14-----------14-------------14---|
F|---14----12-14---14----12-14--14----12-14-------------14----12-14--14----12-14--14----12-14-------------|
C|-12--12-------12---12-------12--12------------------12--12-------12--12-------12--12--------------------|
G|--------------------------------------------------------------------------------------------------------|
D|--------------------------------------------------------------------------------------------------------|


d|-----------------------------------------12h13p12----------------------------------------12-12-12~----------|
A|------14------------14-----------14--------------14------14-----------14-----------------12-12-12~----------|
F|--14----12-14---14----12-14--14----12-14-------------14----12-14--14----12-14--13-13-13~-12-12-12~-13-13-13~|
C|12--12-------12---12-------12--12------------------12--12-------12--12---------11-11-11~-11-11-11~-11-11-11~|
G|-------------------------------------------------------------------------------11-11-11~-----------11-11-11~|
D|------------------------------------------------------------------------------------------------------------|

solo
d|------9----9----9----9-12-12-12-11-11-11-9-9-9--------|
A|--12-9-12-9-12-9-12-9-------------------------12-12-12|
F|------------------------------------------------------|
C|------------------------------------------------------|
G|------------------------------------------------------|
D|------------------------------------------------------|

d|-----------------------------9-9-9-11-11-11-12-11-9-14-12-11-|
A|--9-12---9-12---9-12---9-12----------------------------------|
F|------11-----11-----11-----11--------------------------------|
C|-------------------------------------------------------------|
G|-------------------------------------------------------------|
D|-------------------------------------------------------------|

d|-----9-----9-----9-----9-12-12-12-11-11-11-9-9-9-----------|
A|-12-9--12-9--12-9--12-9--------------------------12-12-12--|
F|-----------------------------------------------------------|
C|-----------------------------------------------------------|
G|-----------------------------------------------------------|
D|-----------------------------------------------------------|

d|------9------9------9------9------11-11-11-12-12-12-14-14-14-12-12-12--|
A|--12-9---12-9---12-9---12-9--------------------------------------------|
F|-----------------------------------------------------------------------|
C|-----------------------------------------------------------------------|
G|-----------------------------------------------------------------------|
D|-----------------------------------------------------------------------|

Outro-29 times
d|---------12---------|
A|----12-9----10-12---|
F|--9-----------------|
C|--------------------|
G|--------------------|
D|--------------------|

end with
d|------------12---|
A|----12-9-12------|
F|--9--------------|
C|-----------------|
G|-----------------|
D|-----------------|

************************************

| /   slide up
| \   slide down
| h   hammer-on
| p   pull-off
| ~   vibrato
| +   harmonic
| x   Mute note
| b   Bend
| pb  Pre-bend
| br  Bend release
| pbr Pre-bend release
| brb Bend release bend

************************************
Добавлено: 06.04.2016
Другие материалы по этой песне:
  • Аккорды и текст

Страница создана 06.04.2016
http://primanota.ru/mass-of-fermenting-dregs/-chords.htm
Привет, Гость.
Предлагаем пройти революционный курс по гитаре.
Подарок от PrimaNota.Ru, забирай!