PrimaNota.ru - самый крупный в мире бесплатный архив песенных текстов, аккордов, табулатур и нот


Mass Budgie Suicide - Will The Banker - таба, видео

Регистрация Запомнить меня
Войти через:  Facebook Google Twitter Vk Yandex Mail.ru

Mass Budgie Suicide - Will The Banker - таба, видео

Печатать
Просмотров: 66
Intro:

 +----------------------||------------------------|| 
 |----------------------||------------------------|| 
 |----5-5---------------||--5-5-------------------|| 
 |----5-5-7-7-5---5—-x2-||--5-5—-7-7--5-55555—-x2-||
 |----3-3-7-7-5---5-----||--3-3—-7-7--5-55555-----||
 +--------5-5-3---3-----||-------5-5--3-33333-----||                                    
                                    
Verse:

 +---------------------------------------||
 |---------------------------------------||
 |--5555--------------------------555555-||
 |--5555-5555-3333-5555-3333-5555-555555-||   x4  
 |--3333-5555-3333-5555-3333-5555-333333-||
 +-------3333-1111-3333-1111-3333--------||

Chorus:

 +---------------------------------------------||
 |---------------------------------------------||
 |-------1010------55-------1010--9----7----5--||
 |---77--1010--55--55---77--1010--9----7----5--||   x2
 |---77---8-8--55--33---77---8-8--7----5----3--||
 +---55------—-33-------55---------------------||

Solo:

 +----12p8---10p8----12p8---10p8---12p8---10p8---12p8----10p8-8-10p8--
 |--8------8-------8------8------8------8------8------8---------------
 |--------------------------------------------------------------------
 |--------------------------------------------------------------------
 |--------------------------------------------------------------------
 +--------------------------------------------------------------------

 +--------------------------8—12b14-12b14-12b14-----------------8-----
 |--10p8--------8-------8/9---------------------10--10—8-8—8h10---10--
 |------9----9---7-7h9------------------------------------------------
 |--------10----------------------------------------------------------
 |--------------------------------------------------------------------
 +--------------------------------------------------------------------

 +---------------------------|| 
 |--10p8---10—10p8-----------|| 
 |-------9---------9--7--5---|| 
 |---------------------------|| 
 |---------------------------|| 
 +---------------------------|| 

Outro:

+----------------------||-------------------------------------------| 
|----------------------||-------------------------------------------| 
|----5-5---------------||--5-5-----------------5-5--------99--77—-5-|
|----5-5-7-7-5---5—-x2-||--5-5—-7-7--5-55555—--5-5—-7-7---99--77—-5-|
|----3-3-7-7-5---5-----||--3-3—-7-7--5-55555---3-3--7-7---77--55—-3-|
+--------5-5-3---3-----||-------5-5--3-33333--------3-3-------------|
Добавлено: 03.04.2012
Другие материалы по этой песне:
  • Аккорды и текст

Страница создана 03.04.2012
http://primanota.ru/mass-budgie-suicide/will-the-banker-chords.htm
Привет, Гость.
Предлагаем пройти революционный курс по гитаре.
Подарок от PrimaNota.Ru, забирай!