PrimaNota.ru - самый крупный в мире бесплатный архив песенных текстов, аккордов, табулатур и нот


Mason Jennings - The Light - текст песни, таба, видео

Регистрация Запомнить меня
Войти через:  Facebook Google Twitter Vk Yandex Mail.ru

Mason Jennings - The Light - текст песни, таба, видео

Печатать
Просмотров: 212
Уроки эстрадного вокала в Санкт-Петербурге
I suppose this song needs a tab. Here you go. - Tom
Tuning:
1/2 step down

intro part 1
e--------------------------| x4
b--------------------------|
G--------------------------|
D-0--0--0--0--0--0--0--0-0-|
A--------------------------|
E--------------------------|

Intro part 2
e------------------------------------------------| x3
b------------------------------------------------|
G----6--6--7-------------------------------------|
D-0--0--0--0--4--4--4--4-----2--5--4--0--0--0--0-|
A-------------5--5--5--5--0----------------------|
E------------------------------------------------|

e-------------------------------------      e--------------------------| x2
b-------------------------------------      b--------------------------|
G----6--6--7--------------------------      G--------------------------|
D-0--0--0--0--4--4--4--4-----2--5--4--      D-0--0--0--0--0--0--0--0-0-|
A-------------5--5--5--5--0-----------      A--------------------------|
E-------------------------------------      E--------------------------|

Verse
e-------------------------------------------------| x2
b-------------------------------------------------|
G-4--4--4--4--4--4--4--4--------------------------|
D-5--5--5--5--5--5--5--5--4--4--4--4--4--4--4--4--|
A-5--5--5--5--5--5--5--5--5--5--5--5--5--5--5--5--|
E-------------------------5--5--5--5--5--5--5--5--|

e-------------------------------------------------|
b-------------------------------------------------|
G-------------------------------------------------|
D-5--5--5--5--5--------------------------0h2h4p0--|
A-2--2--2--2--2--0h2h4p0--5--5--5--5--5-----------|
E-------------------------2--2--2--2--2-----------|

Chorus
e-------------------------------------------------|
b-3--3--3--3--2--2--2--2--------------------------|
G-0--0--0--0--2--2--2--2--------------------------|
D-0--0--0--0--2--2--2--2--0--0--0--0--0--0--0--0--|
A-------------0--0--0--0--------------------------|
E-3--3--3--3--------------------------------------|

Intro part 2

Verse 2

Chorus                                       x2
                          I-----------------------------------------------|I
e----------------------------2-2-2------2-2-2------1-1-1-0-0-0-0-0-0------|
b-3--3--3--3--2--2--2--2-----3-3-3------3-3-3------2-2-2-2-2-2-2-2-2-2----|
G-0--0--0--0--2--2--2--2-----2-2-2-2----2-2-2-2----0-0-0-2-2-2-2-2-2-2----|
D-0--0--0--0--2--2--2--2--0--0-0-0-0-0--0-0-0-0-0--0-0-0-0-0-0-0-0-0-0----|
A-------------0--0--0--0--------------------------------------------------|
E-3--3--3--3--------------------------------------------------------------|

e----2-2-2------2-2-2------1-1-1-0-0-0-0-0-0-----| x8 PAUSE x8 again
b----3-3-3------3-3-3------2-2-2-2-2-2-2-2-2-2---|
G----2-2-2-2----2-2-2-2----0-0-0-2-2-2-2-2-2-2---|
D-0--0-0-0-0-0--0-0-0-0-0--0-0-0-0-0-0-0-0-0-0---|
A------------------------------------------------|
E------------------------------------------------|

End on...
e-2--
b-3--
G-2--
D-0--
A----
E----

Super.
Добавлено: 30.04.2012
Другие материалы по этой песне:
  • Аккорды и текст

Страница создана 18.04.2012
http://primanota.ru/mason-jennings/the-light-chords.htm
Привет, Гость.
Предлагаем пройти революционный курс по гитаре.
Подарок от PrimaNota.Ru, забирай!