PrimaNota.ru - самый крупный в мире бесплатный архив песенных текстов, аккордов, табулатур и нот


Masked Intruder - Adt Security - бас-таба, видео

Регистрация Запомнить меня
Войти через:  Facebook Google Twitter Vk Yandex Mail.ru

Masked Intruder - Adt Security - бас-таба, видео

Печатать
Просмотров: 58
------------------------------------------------------------------------------
                         ADT SECURITY - masked intruder
------------------------------------------------------------------------------

Band: Masked Intruder
Album: First Offense EP (Hang Up Records!, 2012)

Tabbed by Kyle T.
Contact: pants_me@hotmail.com
Site: http://twelveminutemile.tumblr.com

Standard tuning (EADG)

Legend:

  .   - Palm mute                            o     - Repeat bar
  x   - Dead note                            o
  _   - Let ring                           _______
  %   - Rest                              |1,2...  - Endings for repeats
  /   - Slide up                             #     - Harmonic
  \   - Slide down                           Nx    - Number of repeats
  h   - Hammer on                            v     - Vibrato
  b   - bend                                 *     - Staccato
  r   - release                              ^     - Pitch harmonic
 (x)  - Note tied over from previous bar     

---

Note: This band is excellent. I've been listening to them non-stop since a
friend brought them to my attention.

---


Intro:

4/4
G|------------------|------------------|------------------|------------------|
D|------------------|------------------|------------------|------------------|
A|--------%---------|---------%--------|---------%--------|---------%--------|
E|------------------|------------------|------------------|------------------|


Verse 1:

G|------------------|------------------|------------------|------------------|
D|o-----------------|------------------|------------------|-----------------o|
A|o-3--3--3-3-3-3---|------------------|--3--3-3-3-3-3-3--|--1--1-1---------o|
E|------------------|--1--1-1-3--3-3---|------------------|---------1--1-1---|


G|------------------|------------------|------------------|------------------|
D|------------------|------------------|------------------|------------------|
A|------------------|------------------|------------------|------------------|
E|--3--3-3-3-3-3-3--|--3-3-3-3-3-3-3-3-|--5--5-5-5-5-5-5--|-5-5-5-5-5-5-5-5--|


G|------------------|------------------|------------------|------------------|
D|------------------|------------------|------------------|------------------|
A|--1--1-1-1-1-1-1--|--1-1-1-1-1-1-1-1-|------------------|------------------|
E|------------------|------------------|--3--3-3-3-3-3-3--|-3-3-3-3-3-3-3-3--|

  I saw you walking down the street. Ooh baby, you're looking oh-so-sweet.
  I tried to get your attention, but you just kept walking by.
  Tonight I'm going to get another try.


Verse 2:

G|------------------|------------------|------------------|------------------|
D|o-----------------|------------------|------------------|-----------------o|
A|o-3--3--3-3-3-3---|------------------|--3--3-3-3-3-3-3--|--1--1-1---------o|
E|------------------|--1--1-1-3--3-3---|------------------|---------1--1-1---|


G|------------------|------------------|------------------|------------------|
D|------------------|------------------|------------------|------------------|
A|------------------|------------------|------------------|------------------|
E|--3--3-3-3-3-3-3--|--3-3-3-3-3-3-3-3-|--5--5-5-5-5-5-5--|-5-5-5-5-5-5-5-5--|


G|------------------|------------------|------------------|------------------|
D|------------------|------------------|------------------|------------------|
A|--1--1-1-1-1-1-1--|--1-1-1-1-1-1-1-1-|------------------|------------------|
E|------------------|------------------|--3--3-3-3-3-3-3--|-3-3-3-3-3-3-3-3--|

  When I followed you all the way home, I watched you enter your secret code.
  I just want to hold you, you just want to push me away.
  My love for you is here to stay.


Chorus:
                                                                            x4
G|------------------|------------------|------------------|------------------|
D|o-----------------|------------------|------------------|-----------------o|
A|o-3---3-3-3-3-3-3-|------------------|------------------|--3---3-3-3-3-3-3o|
E|------------------|--1---1-1-1-1-1-1-|--3---3-3-3-3-3-3-|------------------|
  
  Oh no, your ADT Security can't keep me away from you. 
  Oh no, your ADT Security can't keep me away from you.
  No one in the world can make me feel the way you do.
  Oh no, your ADT Security can't keep me away from you.


Post-Chorus:

G|------------------|------------------|------------------|------------------|
D|------------------|------------------|------------------|------------------|
A|--3---3---3-3-3-3-|--3-3-3-3-3-3-3-3-|--3-3-3-3-3-3-3-3-|--3-3-3-3-3-3-3-3-|
E|------------------|------------------|------------------|------------------|

  1, 2, 3, 4!


Verse 3:

G|------------------|------------------|------------------|------------------|
D|o-----------------|------------------|------------------|-----------------o|
A|o-3--3--3-3-3-3---|------------------|--3--3-3-3-3-3-3--|--1--1-1---------o|
E|------------------|--1--1-1-3--3-3---|------------------|---------1--1-1---|


G|------------------|------------------|------------------|------------------|
D|------------------|------------------|------------------|------------------|
A|------------------|------------------|------------------|------------------|
E|--3--3-3-3-3-3-3--|--3-3-3-3-3-3-3-3-|--5--5-5-5-5-5-5--|-5-5-5-5-5-5-5-5--|


G|------------------|------------------|------------------|------------------|
D|------------------|------------------|------------------|------------------|
A|--1--1-1-1-1-1-1--|--1-1-1-1-1-1-1-1-|------------------|------------------|
E|------------------|------------------|--3--3-3-3-3-3-3--|-3-3-3-3-3-3-3-3--|

  I saw you walking down the stairs.
  Ooh baby, you were looking like a little kid.
  I just want to hold you, you just want to push me away.
  My love for you is here to stay.


Chorus:
                                                                            x4
G|------------------|------------------|------------------|------------------|
D|o-----------------|------------------|------------------|-----------------o|
A|o-------%---------|---------%--------|---------%--------|---------%-------o|
E|------------------|------------------|------------------|------------------|

  That's why your ADT Security can't keep me away from you. 
  Oh no, your ADT Security can't keep me away from you.
  No one in the world can make me feel the way you do.
  Oh no, your ADT Security can't keep me away.

Outro:
                                                                            5x
G|------------------|------------------|------------------|------------------|
D|o-----------------|------------------|------------------|-----------------o|
A|o-3---3-3-3-3-3-3-|------------------|------------------|--3---3-3-3-3-3-3o|
E|------------------|--1---1-1-1-1-1-1-|--3---3-3-3-3-3-3-|------------------|


G|------------------|------------------|------------------|------------------|
D|------------------|------------------|------------------|------------------|
A|--3---3-3-3-3-3-3-|------------------|------------------|------------------|
E|------------------|--1---1-1-1-1-1-1-|--3---------------|-(3)--------------|


G|------------------|------------------|------------------|------------------|
D|------------------|------------------|------------------|------------------|
A|--3---------------|-(3)--------------|-(3)--------------|-(3)--------------|
E|------------------|------------------|------------------|------------------|

  ADT Security can't keep me away from you.
  Oh no, your ADT Security can't keep me away from you.
  No one in the world can make me feel the way you do.
  That's why your ADT Security can't keep me away from you. 
  Oh no, your ADT Security can't keep me away from you.
  Oh no, your ADT Security can't keep me away from you.

--
Добавлено: 06.07.2013
Другие материалы по этой песне:
  • Аккорды и текст

Страница создана 06.07.2013
http://primanota.ru/masked-intruder/adt-security-chords.htm
Привет, Гость.
Предлагаем пройти революционный курс по гитаре.
Подарок от PrimaNota.Ru, забирай!