PrimaNota.ru - самый крупный в мире бесплатный архив песенных текстов, аккордов, табулатур и нот


Masked Intruder - 25 To Life - таба, видео

Регистрация Запомнить меня
Войти через:  Facebook Google Twitter Vk Yandex Mail.ru

Masked Intruder - 25 To Life - таба, видео

Печатать
Просмотров: 63
Авторы: Masked Intruder

25 to Life 

Intro
e|---------------------------------------------------------------------------|
B|---------------------------------------------------------------------------|
G|-----------5---------------------------------------------------------------|
D|--7----5---5---------------------------------------------------------------|
A|--7----5---3---------------------------------------------------------------|
E|--5----3-------------------------------------------------------------------|

Verse 1
e|---------------------------------------------------------------------------|
B|---------------------------------------------------------------------------|
G|--------6---7-----10----12----------5--------------------------------------|
D|---7----6---7-----10----12------5---5--------------------------------------|
A|---7----4---5-----8-----10------5---3--------------------------------------|
E|---5----------------------------3------------------------------------------|

Verse 2
e|---------------------------------------------------------------------------|
B|---------------------------------------------------------------------------|
G|-----------7-----(9)----7--------------------------------------------------|
D|------2----7----2(9)----7--------------------------------------------------|
A|------2----5----2(7)----5--------------------------------------------------|
E|------0---------0---------------------7sssss14-----------------------------|
                () guitar 2

Chorus
e|---------------------------------------------------------------------------|
B|---------------------------------------------------------------------------|
G|------6--7---10------------------------------------------------------------|
D|---7--6--7---10------------------------------------------------------------|
A|---7--4--5---8-------------------------------------------------------------|
E|---5-----------------------------------------------------------------------|
        (sweep each chorud)

Solo 1
e|---------------------------------------------------------------------------|
B|---------------------------------------------------------------------------|
G|---------------------------------------------------------------------------|
D|---ss7v---ss7s6v---ss6s4v--ss4s3v------------------------------------------|
A|---------------------------------------------------------------------------|
E|---------------------------------------------------------------------------|

Bridge
e|---------------------------------------------------------------------------|
B|---------------------------------------------------------------------------|
G|------9---7----10---12---------5-------------------------------------------|
D|--7---9---7----10---12------5--5-------------------------------------------|
A|--7---7---5----8----10------5--3-------------------------------------------|
E|--5-------------------------3----------------------------------------------|

Solo 2
e|---------------------------------------------------------------------------|
B|---------------7---------------------7-----------------7-------------------|
G|---9-9-9-9-9-6---9-6--9-6----9-9-9-6---9-6-6h9p6-----6---9-6---------------|
D|------------------------------------------------9-----------7--------------|
A|---------------------------------------------------------------------------|
E|---------------------------------------------------------------------------|

Outro
e|---------------------------------------------------------------------------|
B|---------------------------------------------------------------------------|
G|------9--------9------11----7----10----------------------------------------|
D|--7---9----7---9------11----7----10----------------------------------------|
A|--7---7----7---7------9-----5----8-----------------------------------------|
E|--5--------5---------------------------------------------------------------|


Intro x4
Verse 1 x2
Verse 2
Chorus and Solo
Bridge
Intro x4
Solo 2 and Verse 1
Verse 1 (guitar 1 does pm and guitar 2 plays every other note for the first 3 chords)
Verse 2
Chorus and Solo 1
Outro
Intro x4
Добавлено: 09.10.2013
Другие материалы по этой песне:
  • Аккорды и текст

Страница создана 09.10.2013
http://primanota.ru/masked-intruder/25-to-life-chords.htm
Привет, Гость.
Предлагаем пройти революционный курс по гитаре.
Подарок от PrimaNota.Ru, забирай!