PrimaNota.ru - самый крупный в мире бесплатный архив песенных текстов, аккордов, табулатур и нот


Mashina - Rikud Ha Mehona - таба, бас-таба

Регистрация Запомнить меня
Войти через:  Facebook Google Twitter Vk Yandex Mail.ru

Mashina - Rikud Ha Mehona - таба, бас-таба

Печатать
Просмотров: 122
Mashina   -   Rikud Ha'Mechona   (dance of the machine)



Intro:
e|-----------------|
B|-----------------|
G|-----------------|
D|--2-1-0----------|
A|--------4-3-2----|
E|--------------0--|


Main:

e|---------------------|---------------------|          |-----------------------|----------------------|
B|---------------------|---------------------|          |-----------------------|----------------------|
G|---------------------|---------------------|          |----9----9-8-9-8-------|----8---8-8-9-8-------|
D|----2---2-1-2-1------|----1---1-1-2-1------|          |--7--------------10-7--|--7-------------10-9--|
A|--0-------------3-0--|--0-------------3-2--|          |-----------------------|----------------------|
E|---------------------|---------------------|          |-----------------------|----------------------|


e|-------------------|------------------|-------------------|------------------|-----------------|
B|-------------------|------------------|-------------------|------------------|-----------------|
G|-------------------|------------------|-------------------|------------------|-----------------|
D|-------------------|------------------|-------------------|------------------|--2-1-0----------|
A|--------------6/7--|-------------7/6--|--------------6/7--|-------6/7---6/7--|--------4-3-2-0--|
E|--4/5---7/8--------|--4/5---7/8-------|--4/5---7/8--------|--4/5-------------|-----------------|


Sax solo:
e|--0-0-4-5--|--0-0-4-5-5-4-5--|--0-0-4-5--|--------10-8-7-8---7-5-7---5-4-5-4----|----4-----5-4-0--|
B|-----------|-----------------|-----------|----9-10---------------------------6--|--6---6----------|
G|-----------|-----------------|-----------|--9-----------------------------------|-----------------|
D|-----------|-----------------|-----------|--------------------------------------|-----------------|
A|-----------|-----------------|-----------|--------------------------------------|-----------------|
E|-----------|-----------------|-----------|--------------------------------------|-----------------|
Добавлено: 18.11.2015
Другие материалы по этой песне:
  • Аккорды и текст

Страница создана 17.03.2012
http://primanota.ru/mashina/rikud-ha-mehona-chords.htm
Привет, Гость.
Предлагаем пройти революционный курс по гитаре.
Подарок от PrimaNota.Ru, забирай!