PrimaNota.ru - самый крупный в мире бесплатный архив песенных текстов, аккордов, табулатур и нот


Mashina - Boi Venipol - аккорды и текст

Регистрация Запомнить меня
Войти через:  Facebook Google Twitter Vk Yandex Mail.ru

Mashina - Boi Venipol - аккорды и текст

Печатать
Просмотров: 39
Уроки эстрадного вокала в Санкт-Петербурге
Boi Venipol
Mashina
בואי וניפול     אל תוך עולם סגול
Fm               Eb  Fm      Bb
בואי ונשכב     אל מול אגם מוזהב

Bb  C#              Eb  Fm      Bb
בואי נתעלס     על עור של ברדלס
Bb   Fm              Eb  Fm      Bb
בואי ונאהב     תיקחי אותי עכשיו

פזמון:

Bb  Fm             Bb
כשאת עושה לי אהבה
Bb   Fm         Bb
אני נשרף בלהבה
 Bb     Cm       Bb
והירח מתנפץ לרסיסים
 Fm      Bb        Cm  
שאחר כך מתפזרים לכוכבים

Bb   C#              Eb   Fm      Bb
בואי וניפול     אל תוך עולם סגול
Fm               Eb  Fm      Bb
בואי ונצחק      על זמן ועל מרחק

Bb   C#              Eb  Fm      Bb
בואי ונבכה     אל מול נהר גואה
 Fm          Eb  Fm      Bb
בואי ונחלום    שהאתמול היום

פזמון

מעבר:

  Fm       Eb         C#        Fm      Eb              C#             Fm 
e|-4-6-4---3--3-4-3-----------------|--|-----4---8-4---4----4---7-6-4----|
B|-------6----------4------4--------|--|---6---6-----6----6---6-------6--|
G|--------------------6--6---6-3-5--|x2|---------------------------------|
D|----------------------------------|--|---------------------------------|
A|----------------------------------|--|---------------------------------|
E|----------------------------------|--|---------------------------------|

                                 Eb      C#       Fm                    
e|--4-6-7--6-7-6----4-6-7-13-7-6-4-------13-------------4-3------------|
B|-6--------------6-----------------6--6-----6-6-4-6---------6-4-3-----|
G|-----------------------------------------------------------------5-3-|
D|---------------------------------------------------------------------|
A|---------------------------------------------------------------------|
E|---------------------------------------------------------------------|
Добавлено: 18.11.2015
Другие материалы по этой песне:
  • Аккорды и текст

Страница создана 18.11.2015
http://primanota.ru/mashina/boi-venipol-chords.htm
Привет, Гость.
Предлагаем пройти революционный курс по гитаре.
Подарок от PrimaNota.Ru, забирай!