PrimaNota.ru - самый крупный в мире бесплатный архив песенных текстов, аккордов, табулатур и нот


Mashina - Ain Makom Aher - аккорды и текст, видео

Регистрация Запомнить меня
Войти через:  Facebook Google Twitter Vk Yandex Mail.ru

Mashina - Ain Makom Aher - аккорды и текст, видео

Печатать
Просмотров: 43
Ain Makom Aher
Mashina
e||--------------9--------------9------------9--------9----9----||
B||----------9------9---------9---9--------9---9-----9----9-9---||
G||------9------------9-----9-------9----9------9---9----9---9--||
D||-11------------------11------------11----------11---11-----11||
A||-------------------------------------------------------------||
E||-------------------------------------------------------------||
המשך פתיחה:
C#m A B E x2
C#m   E      B       A          C#m
כן הזמן הזה אבוד אבל לא בשבילי
Abm   E     B    A          C#m
הוא תלוי על עמוד ולא בגללי
    C#m   A       Abm
אין מקום אחר  אין אחר
מעבר:
    Abm      Ab        C#m 
e||----------------------||
B||-------4--------4-----||
G||----4--------5------6-||
D||-6--------6-----------||
A||----------------------||
E||----------------------||
C#m   E    B    A        C#m
במקום שאני גר ישנה אישה
Abm   E     B    A      C#m
מה אתה מחפש  אליי לחשה
B     C#m   A       Abm
אין מקום אחר  אין אחר
B       E            F#m
אוווווווו אווו אוווווו
      A            F#m
אוווווווו אווו אוווווו
מעבר:
    Abm                                 Abm      Ab        C#m  
e||---------------------------------|--|----------------------||
B||---------------------------------|--|-------4--------4-----||
G||---------------------------------|--|----4--------5------6-||
D||-6--4--6--7--6--4--6--4---6--4---|--|-6--------6-----------||
A||------------------------7------4-|x2|----------------------||
E||---------------------------------|--|----------------------||
C#m   E    B       A     C#m
נכון שהימים  כל כך קצרים
Abm  E     B      A        C#m 
ושיר שאני אוהב כבר לא משדרים
    C#m   A       Abm
אין מקום אחר  אין אחר
B       E            F#m
אוווווווו אווו אוווווו
      A            F#m
אוווווווו אווו אוווווו
    C#m                                            
e||---------------|---|--------------------------||
B||---------------|---|--------------------------||
G||---------------|---|--------------------------||
D||---------------|---|--------------------------||
A||-4-4-4-4-4-5-2-|x12|--4-5-6-7-8-9-10-11-12-13-||
E||---------------|---|--------------------------||
מעבר:
C#m A B E
C#m   E      B       A          C#m
כן הזמן הזה אבוד אבל לא בשבילי
Abm   E     B    A          C#m
הוא תלוי על עמוד ולא בגללי
    C#m   A       Abm
אין מקום אחר  אין אחר
B             C#m
אין אחר אין אחר
B       E            F#m
אוווווווו אווו אוווווו
      A            F#m
אוווווווו אווו אוווווו
Добавлено: 18.11.2015
Другие материалы по этой песне:
  • Аккорды и текст

Страница создана 18.11.2015
http://primanota.ru/mashina/ain-makom-aher-chords.htm
Привет, Гость.
Предлагаем пройти революционный курс по гитаре.
Подарок от PrimaNota.Ru, забирай!