PrimaNota.ru - самый крупный в мире бесплатный архив песенных текстов, аккордов, табулатур и нот


Masashi Kageyama - Identity Believer - таба, видео

Регистрация Запомнить меня
Войти через:  Facebook Google Twitter Vk Yandex Mail.ru

Masashi Kageyama - Identity Believer - таба, видео

Печатать
Просмотров: 64
Уроки эстрадного вокала в Санкт-Петербурге
/**
 * Identity Believer, from the video game Gimmick! (JP) [Mr. Gimmick (PAL)] (1992)
 * Composer: Masashi Kageyama. 
 *
 * Spacing roughly correlates with timing. The chords are in a _very_ high octave 
 * on the actual song, so the few presented here have naturally been brought down 
 * a bit.
 * Additionally, there are a bunch of harmonies deep down in the actual track. This
 * is just the most noticable lead.
 *
 * . : Staccato
 * 3 : Triplet feel
 * m : Palm mute.
 */

  (0:01)              .    .                                        m m m m m
e |------------------------------------------------------------------------------------------------------------|
B |-------------------13---15-----------------------------------10---------------------------------------------|
G |-----------10------12---14-----------------------10-12-10-12------------------------------------------------|
D |-----10-12----12---10---12-----------------10-12------------------------------------------------------------|
A |--12-------------------------(10\8)--10-12----------------------(0-3-3-0-5)---------------------------------|
E |------------------------------------------------------------------------------------------------------------|
                                (Bass fills in parentheses)
  (0:07)              .    .
e |------------------------------------------------------------------------------------------------------------|
B |-------------------13---15----------------------10\9-------------13-10--------------------------------------|
G |-----------10------12---14---------------------------12-10--------------------------------------------------|
D |-----10-12----12---10---12----------------10-12------------10-12--------------------------------------------|
A |--12-------------------------(10\8)-------------------------------------------------------------------------|
E |------------------------------------------------------------------------------------------------------------|
                                 (Bass fill in parentheses)
  (0:12)                                       3  3  3
e |-----------10-12-13----12-13-15/17----------------13\12------------17---------------------------------------|
B |--10-11-13-------------------------15-------13-15-------15---13----15---------------------------------------|
G |------------------------------------------------------------------------------------------------------------|
D |------------------------------------------------------------------------------------------------------------|
A |------------------------------------------------------------------------------------------------------------|
E |------------------------------------------------------------------------------------------------------------|

  (0:17)
e |--------------------------------------------------12-13------12-13-15---13-15-17---20-22--------------------|
B |--11-10----11-----10----13-----11-10-13-----13-15-------15--------------------------------------------------|
G |--------12-----------12-------------------------------------------------------------------------------------|
D |------------------------------------------------------------------------------------------------------------|
A |------------------------------------------------------------------------------------------------------------|
E |------------------------------------------------------------------------------------------------------------|

  (0:23)                                                                      .    .
e |-----13-13--------------------------------------------------------------------------------------------------|
B |--15-------15------13-13-12--------12----------------------------------10--13---15--------------------------|
G |----------------14-----------12-14----14--10--12-----10----12----10-12-----12---14--------------------------|
D |--------------------------------------------------12----12----12-----------10---12--------------------------|
A |------------------------------------------------------------------------------------------------------------|
E |------------------------------------------------------------------------------------------------------------|

  (0:28)                                                     3  3  3          .    .    .
e |--13-13-----------------------------------------------------------------------------------------------------|
B |--------15-----13----------12---------------------10------------10---------13---14---15---------------------|
G |------------14----14-12-14----14------10----12------------10-12----12-10---12---13---14---------------------|
D |-----------------------------------12----12----12----12--------------------10---11---12---------------------|
A |------------------------------------------------------------------------------------------------------------|
E |------------------------------------------------------------------------------------------------------------|
Добавлено: 18.06.2016
Другие материалы по этой песне:
  • Аккорды и текст

Страница создана 18.06.2016
http://primanota.ru/masashi-kageyama/identity-believer-chords.htm
Привет, Гость.
Предлагаем пройти революционный курс по гитаре.
Подарок от PrimaNota.Ru, забирай!