PrimaNota.ru - самый крупный в мире бесплатный архив песенных текстов, аккордов, табулатур и нот


Masappan - Otra Manana - таба, видео

Регистрация Запомнить меня
Войти через:  Facebook Google Twitter Vk Yandex Mail.ru

Masappan - Otra Manana - таба, видео

Печатать
Просмотров: 99
Otra Mañana – Masappan

Tabbed by: yamaha182
Email: medellin_andres92@hotmail.com

Tuning: Standard

Intro guitar 1
e|-----------------------------------------------------------------------|
B|-----------------------------------------------------------------------|
G|-----------------------------------------------------------------------|
D|-8---------------------------------8-----------------------------------|
A|---10-8-6-8-6-8-6-8-6-8-6-8-10-(x3)--10-8-6-8-6-8-10-11-11-11-11-11-10-|
E|-----------------------------------------------------------------------|x2

Intro guitar 2
e|------------------------------------------------------------|
B|------------------------------------------------------------|
G|--8888888888------------------------------------------------|
D|--8888888888--8888888888--6666666666--888888--9-9-9-9-9-9---|
A|--6666666666--8888888888--6666666666--888888--101010101010--|
E|--------------6666666666--4444444444--666666--7-7-7-7-7-7---|x2

Verse guitar 1 & 2
e|-------------------------------------------------------------|
B|-------------------------------------------------------------|
G|--8~--8------------------------------------------------------|
D|--8~--88-8888888888--6-6666666666--8-8888888--9--9-9-9-9-9---|
A|--6~--68-8888888888--6-6666666666--8-8888888--10-1010101010--|
E|-------6-6666666666--4-4444444444--6-6666666--7--7-7-7-7-7---|
PM         ..........    ..........    .......     .........

e|--------------------------------------------------------------------|
B|--------------------------------------------------------------------|
G|-8-888888888--------------------------------------------------------|
D|-8-888888888--8-8888888888--6-6666666666--8-8888888--9--9-9-9-9-9---|
A|-6-666666666--8-8888888888--6-6666666666--8-8888888--10-1010101010--|
E|--------------6-6666666666--4-4444444444--6-6666666--7--7-7-7-7-7---|
     .........    ..........    ..........    .......     .........   

Chorus guitar 1 & 2
e|---------------------------------------------------------------------|
B|---------------------------------------------------------------------|
G|--8888888888---------------------------------------------------------|
D|--8888888888--10101010101010101010--6666666666--88-8-88-8-88-8-88-8--|
A|--6666666666--10101010101010101010--6666666666--88-8-88-8-88-8-88-8--|
E|--------------8-8-8-8-8-8-8-8-8-8---4444444444--66-6-66-6-66-6-66-6--|x2
PM                                                ..   ..   ..   ..

Repeat Intro
Repeat Verse

Bridge guitar 1 & 2
e|---------------------------------|
B|---------------------------------|
G|--88--8--------------------------|
D|--88--88-66--6-8-1010--10-8-6-5--|
A|--66--68-66--6-8-1010--10-8-6-5--|
E|-------6-44--4-6-8-8---8--6-4-3--|

e|-----------------------------------------------------|
B|-----------------------------------------------------|
G|--8-88-88-88-888--8-88-88-88-888-----8---------------|
D|--x-xx-xx-xx-xxx--x-xx-xx-xx-xxx--10-8-6666-5555555--|
A|--6-66-66-66-666--6-66-66-66-666--10-6-6666-5555555--|
E|----------------------------------8----4444-3333333--|x2

Chorus guitar 1 & 2
e|---------------------------------------------------------------------|
B|---------------------------------------------------------------------|
G|--8888888888---------------------------------------------------------|
D|--8888888888--10101010101010101010--6666666666--88-8-88-8-88-8-88-8--|
A|--6666666666--10101010101010101010--6666666666--88-8-88-8-88-8-88-8--|
E|--------------8-8-8-8-8-8-8-8-8-8---4444444444--66-6-66-6-66-6-66-6--|x2
PM                                                ..   ..   ..   ..

Chorus 2nd part guitar 2
e|---------------------------------------------------------------------|
B|---------------------------------------------------------------------|
G|--8888888888---------------------------------------------------------|
D|--8888888888--10101010101010101010--6666666666--88-8-88-8-88-8-88-8--|
A|--6666666666--10101010101010101010--6666666666--88-8-88-8-88-8-88-8--|
E|--------------8-8-8-8-8-8-8-8-8-8---4444444444--66-6-66-6-66-6-66-6--|x2
PM                                                ..   ..   ..   ..

Chorus 2nd part guitar 1
e|-----------------------------------------------------------------------|
B|-----------------------------------------------------------------------|
G|-----------------------------------------------------------------------|
D|-8---------------------------------8-----------------------------------|
A|---10-8-6-8-6-8-6-8-6-8-6-8-10-(x3)--10-8-6-8-6-8-10-11-11-11-11-11-10-|
E|-----------------------------------------------------------------------|x2

End guitar 1 & 2
e|-------------------------------------------|
B|-------------------------------------------|
G|---------------------------------------8/--|
D|---------------------------------------8/--|
A|--8p6h8p6h8p6h8p6h8p6h8p6h8p6h8p6h8p6—-6/--|
E|-------------------------------------------|

comment & rate please


Добавлено: 02.06.2012
Другие материалы по этой песне:

Страница создана 03.04.2012
http://primanota.ru/masappan/otra-manana-chords.htm
Привет, Гость.
Предлагаем пройти революционный курс по гитаре.
Подарок от PrimaNota.Ru, забирай!