PrimaNota.ru - самый крупный в мире бесплатный архив песенных текстов, аккордов, табулатур и нот


Masamichi Sugi - Sunshine Love - бас-таба, видео

Регистрация Запомнить меня
Войти через:  Facebook Google Twitter Vk Yandex Mail.ru

Masamichi Sugi - Sunshine Love - бас-таба, видео

Печатать
Просмотров: 27
Уроки эстрадного вокала в Санкт-Петербурге
[Intro]
G|-19---------------|---------------|-5-4-------------------|-------------------|
D|------------------|-17------------|-----5-----------------|-5-----------------|
A|------------------|---------------|-------5---------------|-------------------|
E|------------------|---------------|-----------------------|----------------5-7|

[Verse 1]
G|-----------|-----------|------------|------------|
D|-----7-----|-----------|------------|------------|
A|-5-------5\|-----4-----|-----5------|---------5-4|
E|-----------|-2-------2-|-3-------0-2|-3---3------|

G|-----------|-----------|-------------|--------------|
D|-----4-----|-----------|----------4--|--------------|
A|-2-------2-|-----2-----|------------7|--------------|
E|-----------|-0-------0-|-5---5--5----|-5---5-5-5-5-5|

G|-----------|-----------|------------|------------|
D|-----7-----|-----------|------------|------------|
A|-5-------5\|-----4-----|-----5------|---------5-4|
E|-----------|-2-------2-|-3-------0-2|-3---3------|

G|-----------|------------|-----------|---------|
D|-----4-----|------------|-----7-----|---------|
A|-2-------2/|-7--------4-|-5-------5\|---------|
E|-----------|-----5--7---|-----------|-3---5---|

[Verse 2]
G|-----------|-----------|-----------|--------7----|
D|-----------|-----------|-----------|----------7--|
A|-5---5-5---|-----------|-----------|-5---5------8|
E|-----------|-3---3-3---|-5---5-5---|-------------|

G|-----------|-----------|------------|------------|
D|-----------|-----------|--------0-2-|-3-5-6-7----|
A|-5---5-5---|-----------|-3---3------|------------|
E|-----------|-3---3-3---|------------|------------|

[Chorus]
G|-----------|-----------|------------|------------|
D|-----7-----|-----------|------------|------------|
A|-5-------5\|-----4-----|-----5------|---------5-4|
E|-----------|-2-------2-|-3-------0-2|-3---3------|

G|-----------|--------------|-----------|--7-4----------|
D|-----4-----|--------------|-----7-----|------7-4------|
A|-2-------2/|-7---7-------4|-5-------5-|----------7-5--|
E|-----------|---7---5--7---|-----------|--------------7|

[Instrumental]
G|-----------|-------------|------------|------------|
D|-----7-----|-------------|------------|------------|
A|-5-------5\|-----4--4---4|-----5------|---------5-4|
E|-----------|-2--------2--|-3-------0-2|-3---3------|

G|-----------|-----------|-------------|----------------|
D|-----4-----|-----------|----------4--|----------------|
A|-2-------2/|-7-------7-|------------7|-------7-9\8-9-7|
E|-----------|-----7-----|-5---5--5----|--5-/7----------|

G|-----------|-----------|------------|------------|
D|-----7-----|-----------|------------|------------|
A|-5-------5\|-----4-----|-----5------|---------5-4|
E|-----------|-2-------2-|-3-------0-2|-3---3------|

G|-----------|------------|-----------|---------|
D|-----4-----|------------|-----7-----|---------|
A|-2-------2/|-7--------4-|-5-------5\|---------|
E|-----------|-----5--7---|-----------|-3---5---|

[Verse 3]
G|-----------|-----------|-----------|--------7----|
D|-----------|-----------|-----------|----------7--|
A|-5---5-5---|-----------|-----------|-5---5------8|
E|-----------|-3---3-3---|-5---5-5---|-------------|

G|-----------|-----------|------------|------------|
D|-----------|-----------|--------0-2-|-3-5-6-7----|
A|-5---5-5---|-----------|-3---3------|------------|
E|-----------|-3---3-3---|------------|------------|

[Interlude]
G|-19---------------|---------------|-5-4--------------------|------------5-4--------|
D|------------------|-17------------|-----5------------------|----------------5-2-0--|
A|------------------|---------------|-------5--------------5/|-10-------------------2|
E|------------------|---------------|------------------------|-----------------------|

[Bridge]
G|---------------|-----------------|------------------------------|
D|---------------|-----------------|----------x-7-/14---12--------|
A|-----5----x-5-/|-10--x-10--------|-5--x-5-----------------14-12-|
E|-3-----3-------|-----------x-5-/7|------------------------------|

G|---------------|-------------|-------------|---------|---------|
D|---------------|-------------|---------4-\3|---------|---------|
A|-10--x-10---x-5|-------------|-9-\-4-------|-1-------|-3-------|
E|---------------|-3--x-3---x-9|-------------|---------|---------|

[Chorus]
G|-----------|-----------|------------|------------|
D|-----7-----|-----------|------------|------------|
A|-5-------5\|-----4-----|-----5------|---------5-4|
E|-----------|-2-------2-|-3-------0-2|-3---3------|

G|-----------|--------------|------------|-----------|-----------|-------|-----------|
D|-----4-----|--------------|-----7------|-----------|-----7-----|-------|-----------|
A|-2-------2/|-7---7-------4|-5-------5-6|-7--------7|-5-------5-|(Vocal)|-7---------|
E|-----------|---7---5--7---|------------|-----5-----|-----------|-------|------5----|

[Outro]
G|------------|-----------|-----|
D|------------|-----------|-----|
A|------------|-----------|-----|
E|-6---6-6---6|-6---6-6---|-/10-|



*******************************

| / Slide up
| \ Slide down
| x Dead note

*******************************
Добавлено: 19.10.2017
Другие материалы по этой песне:
  • Аккорды и текст

Страница создана 19.10.2017
http://primanota.ru/masamichi-sugi/sunshine-love-chords.htm
Привет, Гость.
Предлагаем пройти революционный курс по гитаре.
Подарок от PrimaNota.Ru, забирай!