PrimaNota.ru - самый крупный в мире бесплатный архив песенных текстов, аккордов, табулатур и нот


Masamichi Sugi - Starship - бас-таба, видео

Регистрация Запомнить меня
Войти через:  Facebook Google Twitter Vk Yandex Mail.ru

Masamichi Sugi - Starship - бас-таба, видео

Печатать
Просмотров: 28
Уроки эстрадного вокала в Санкт-Петербурге
Bass Start - 00:07


[Intro]
G|----------------------|------------------|
D|----------------------|------------------|
A|----------------------|------------------|
E|---3----3----3----3---|-3----3----3----3-|

G|----------------|----------------|----------------|----------------|
D|----------------|----------------|----------------|----------------|
A|----------------|---------0---2--|-3-3-3-3-3-3-3-3|-3-3-3-3-0---3--|
E|-3-3-3-3-3-3-3-3|-3-3-3-3---3---3|----------------|-----------3---3|

G|------------------------|
D|------------------------|
A|-5-5-5-5-5-5-5-5--------|
E|------------------------|

[Verse 1]
G|----------------|----------------|----------------|----------------|
D|----------------|----------------|----------------|----------------|
A|----------------|----------------|----------------|-3-3-3-3-3-3-3-3|
E|-3-3-3-3-3-3-3-3|-2-2-2-2-2-2-2-2|-0-0-0-0-0-0-0-0|----------------|

G|----------------|----------------|------------------------------|
D|----------------|----------------|------------------------------|
A|----------------|----------------|-----------2-3-5--5-5-5-------|
E|-3-3-3-3-3-3-3-3|-3-3-3-3-3-3-3-3|-3-3-3-3-3---------------5-5-2|

G|----------------|----------------|----------------|----------------|
D|----------------|----------------|----------------|----------------|
A|----------------|----------------|----------------|-3-3-3-3-3-3-3-3|
E|-3-3-3-3-3-3-3-3|-2-2-2-2-2-2-2-2|-0-0-0-0-0-0-0-0|----------------|

G|----------------|----------------|-----------------------------|
D|----------------|----------------|--------4/5\4/5\---------4/5\|
A|---------------2|-3-3-3-3-5-5-5-5|-----------------------------|
E|-3-3-3-3-3-3-3--|----------------|-3-----------------3-3-------|

[Pre-Chorus]
G|----4----4---------------|-------------------------|
D|-------------------------|----7----7---------------|
A|-2--------------7---5-7--|-----------5--5-5---3-5--|
E|-----------0--0---------0|-5----------------------0|

G|-------------------------|--------------------|
D|----3----3---------------|--------------------|
A|----------------7---5-7--|------2----3----5---|
E|-1---------0--0---------0|-5------------------|

[Chorus]
G|----------------|----------------|----------------|----------------|
D|----------------|----------------|----------------|----------------|
A|----------------|----------------|----------------|----------------|
E|-0-0-0-0-0-0-0-0|-0-0-0-0-0-0-0-0|-2-2-2-2-2-2-2-2|-2-2-2-2-2-2-2-2|

G|----------------|---------------|------------------------------|
D|----------------|---------------|------------------------------|
A|----------------|-3-3-3-3-2-2-2-|-------------2-3--3-3-5--5-5-5|
E|-5-5-5-5-5-5-5-5|---------------|-0-0-0-0-0-4------------------|

G|----------------|----------------|----------------|----------------|
D|----------------|----------------|----------------|----------------|
A|----------------|----------------|----------------|----------------|
E|-0-0-0-0-0-0-0-0|-0-0-0-0-0-0-0-0|-2-2-2-2-2-2-2-2|-2-2-2-2-2-2-2-2|

G|----------------|---------------|-----------------|
D|----------------|---------------|-----------------|
A|----------------|-2-2-2-2-2-2-2-|-----------------|
E|-5-5-5-5-5-5-5-5|---------------|-0---------------|

G|--------------------|---------------------|--------------------|-------------------|
D|--------------------|--------------10--10\|--------------------|-------------------|
A|-3------------------|-3----------/--------|-6------------------|-6------------6--6\|
E|---------------0-3-5|---------------------|---------------6-8-6|-------------------|

[Interlude]
G|----------------9/12--12\|--------------------|
D|-------------------------|--------------------|
A|-------------------------|--------------------|
E|---3----3----3-----------|---3----3----3----3-|

G|----------------|----------------|----------------|----------------|
D|----------------|----------------|----------------|----------------|
A|----------------|---------0---2--|-3-3-3-3-3-3-3-3|-3-3-3-3-0---3--|
E|-3-3-3-3-3-3-3-3|-3-3-3-3---3---3|----------------|-----------3---3|

G|------------------------|
D|------------------------|
A|-5-5-5-5-5-5-5-5--------|
E|------------------------|

[Verse 2]
G|----------------|----------------|----------------|----------------|
D|----------------|----------------|----------------|----------------|
A|----------------|----------------|----------------|-3-3-3-3-3-3-3-3|
E|-3-3-3-3-3-3-3-3|-2-2-2-2-2-2-2-2|-0-0-0-0-0-0-0-0|----------------|

G|----------------|----------------|------------------------------|
D|----------------|----------------|------------------------------|
A|----------------|----------------|-----------2-3-5--5-5-5-------|
E|-3-3-3-3-3-3-3-3|-3-3-3-3-3-3-3-3|-3-3-3-3-3---------------5-5-2|

G|----------------|----------------|----------------|----------------|
D|----------------|----------------|----------------|----------------|
A|----------------|----------------|----------------|-3-3-3-3-3-3-3-3|
E|-3-3-3-3-3-3-3-3|-2-2-2-2-2-2-2-2|-0-0-0-0-0-0-0-0|----------------|

G|----------------|----------------|-----------------------------|
D|----------------|----------------|--------4/5\4/5\---------4/5\|
A|---------------2|-3-3-3-3-5-5-5-5|-----------------------------|
E|-3-3-3-3-3-3-3--|----------------|-3-----------------3-3-------|

[Pre-Chorus]
G|----4----4---------------|-------------------------|
D|-------------------------|----7----7---------------|
A|-2--------------7---5-7--|-----------5--5-5---3-5--|
E|-----------0--0---------0|-5----------------------0|

G|-------------------------|--------------------|
D|----3----3---------------|--------------------|
A|----------------7---5-7--|------2----3----5---|
E|-1---------0--0---------0|-5------------------|

[Chorus]
G|----------------|----------------|----------------|----------------|
D|----------------|----------------|----------------|----------------|
A|----------------|----------------|----------------|----------------|
E|-0-0-0-0-0-0-0-0|-0-0-0-0-0-0-0-0|-2-2-2-2-2-2-2-2|-2-2-2-2-2-2-2-2|

G|----------------|----------------|------------------------------|
D|----------------|-----2----------|------------------------------|
A|----------------|-3-3---3-2-2---2|-------------2-3--3-3-5--5-5-5|
E|-5-5-5-5-5-5-5-5|-------------2--|-0-0-0-0-0-4------------------|

G|----------------|----------------|----------------|----------------|
D|----------------|----------------|----------------|----------------|
A|----------------|----------------|----------------|-----1----------|
E|-0-0-0-0-0-0-0-0|-0-0-0-0-0-0-4-0|-2-2-2-2-2-2-2-2|-4-2---2-4-2-2-4|

G|----------------|----------------|
D|----------------|----------------|
A|----------------|-2-2-2-2-2-2-2-2|
E|-5-5-5-5-5-5-5-5|----------------|

G|----------------|----------------|----------------|---------------|
D|----------------|----------------|----------------|--2-0----------|
A|----------------|----------------|----------------|------2--------|
E|----------------|----------------|----------------|--------3-4-0-4|

G|----------------|----------------|----------------|----------------|
D|----------------|----------------|----------------|----------------|
A|----------------|----------------|----------------|----------------|
E|-1-1-1-1-1-1-1-1|-1-1-1-1-1-1-1-1|-3-3-3-3-3-3-3-3|-3-3-3-3-3-3-3-3|

G|----------------|---1------------|------------------------------|
D|----------------|-----3----------|----------------------1--1----|
A|-1-1-1-1-1-1-1-1|-4-----4-3------|-----------0-3-4--4-4------1--|
E|----------------|-----------3-1-3|-1-1-1-1-1-------------------3|

G|----------------|----------------|----------------|----------------|
D|----------------|----------------|----------------|----------------|
A|----------------|----------------|----------------|----------------|
E|-1-1-1-1-1-1-1-1|-1-1-1-1-1-1-1-1|-3-3-3-3-3-3-3-3|-3-3-3-3-3-3-3-3|

G|----------------|----------------|
D|----------------|----------------|
A|-1-1-1-1-1-1-1-1|-3-3-3-3-3-3-3-3|
E|----------------|----------------|

[Outro] (repeat until the end)
G|----------------|----------------|----------------|----------------|
D|----------------|----------------|----------------|----------------|
A|----------------|-------------0--|-1-1-1-1-1-1-1-1|-1-1-1-1-----0--|
E|-1-1-1-1-1-1-1-1|-1-1-1-1-3-1---1|----------------|---------3-1---1|



**********************

| / slide up
| \ slide down

**********************
Добавлено: 19.10.2017
Другие материалы по этой песне:
  • Аккорды и текст

Страница создана 19.10.2017
http://primanota.ru/masamichi-sugi/starship-chords.htm
Привет, Гость.
Предлагаем пройти революционный курс по гитаре.
Подарок от PrimaNota.Ru, забирай!