PrimaNota.ru - самый крупный в мире бесплатный архив песенных текстов, аккордов, табулатур и нот


Masamichi Sugi - Nobody - бас-таба, видео

Регистрация Запомнить меня
Войти через:  Facebook Google Twitter Vk Yandex Mail.ru

Masamichi Sugi - Nobody - бас-таба, видео

Печатать
Просмотров: 36
Уроки эстрадного вокала в Санкт-Петербурге
Song : https://www.youtube.com/watch?v=F5kgypYx3uc&index=4&list=PLsgxU0xkeGG5fcPyoxaI8eaGKeO8x8ai5



[intro]

G|-----|-------------|
D|-----|-------------|
A|-----|--3----------|
E|--3--|--------1/2--|


[verse 1]

G|---------------|---------------|---------------|---------------|
D|---------------|--3---3--------|--5---5--------|--3---3--------|
A|--------3---3--|--------5---5--|--------3---3--|--------3---3--|
E|--3---3--------|---------------|---------------|---------------|


G|---------------------------|---------------|--.----------------|
D|--3---3--------------------|---------------|--3----------------|
A|--------3--2--1---1-4---4--|--------3---3--|----3-3-3-3-3-5-3--|
E|---------------------------|--3---3--------|-------------------|


[verse 2]

G|---------------|-----------------|---------------|---------------|
D|---------------|--3---------3-4--|--5------------|--3------------|
A|--------3---3--|------3-5-5------|------5-3---3--|------3-3---3--|
E|--3---3--------|-----------------|---------------|---------------|


G|-----------------------------|---------------|---------------|
D|-----------------------------|---------------|--3---3--------|
A|--------3---3-2-1---1-4---4--|--------3---3--|--------3---3--|
E|--1---1---1------------------|--3---3--------|---------------|




G|-----------------------|-------------------------------|----------------------------|
D|--3---3-----------3-3--|--------3-3--------------3-----|------3---------------------|
A|--------3---2-1--------|--1-1--------3-----x-3-3----3--|---------3-3-2-1---1--------|
E|-----------------------|----------------1--------------|--1------------------1---2--|


G|-------------------|------0-5-3-2-0----|
D|----------0-0------|----2-----------3--|
A|------2-2-----2-2--|--3----------------|
E|--3-3--------------|-------------------|


[verse 3]

G|---------------|------5/7--5------|---------------|---------------|
D|--5------------|--3----------7-6--|--5------------|--3------------|
A|------5-3---3--|------------------|------5-3---3--|------3-3---3--|
E|---------------|------------------|---------------|---------------|


G|-----------------------------|---------------|--.----------------|
D|-----------------------------|---------------|--3----------------|
A|--------3---3-2-1---1-4---4--|--------3---3--|----3-3-3-3-3-3-3--|
E|--1---1---1------------------|--3---3--------|-------------------|


[instrumental]

G|---------------|-----------------|---------------|---------------|
D|--5------------|--3---3-----3-4--|--5------------|--3------------|
A|------5-3---3--|--------5-5------|------5-3---3--|------3-3---3--|
E|---------------|-----------------|---------------|---------------|


G|-----------------------------|---------------|---------------|
D|-----------------------------|---------------|--3---3--------|
A|--------3---3-2-1---1-4---4--|--------3---3--|--------3---3--|
E|--1---1---1------------------|--3---3--------|---------------|




G|-----------------------|-----------------------------|------.-------------------|
D|--3---------------3-3--|--------3-3------------3-----|------3-------------------|
A|------3-3--2--1--------|--1-1--------3------3-----3--|--------3--2--1---1-------|
E|-----------------------|----------------1------------|--1-----------------1--2--|


G|-------------------|------0-5-3-2-0----|
D|----------0-0------|----2-----------3--|
A|------2-2-----2-2--|--3----------------|
E|--3-3--------------|-------------------|


[verse 4]

G|---------------|------5/7--5------|---------------|---------------|
D|--5------------|--3----------7-6--|--5------------|--3------------|
A|------5-3---3--|------------------|------5-3---3--|------3-3---3--|
E|---------------|------------------|---------------|---------------|


G|------------------------------|---------------|
D|--3--3-----3------------------|---------------|
A|-------3-3---3-2-1---1-4---4--|--------3---3--|
E|------------------------------|--3---3--------|


[verse 5]

G|------3----------|--/8----------|--------------------|
D|----------3-2-1--|--------------|--------------------|
A|--1--------------|--------------|--------------------|
E|-----------------|-------6-5-4--|--3---1----1--3--4--|


G|------3----------|--/8----------|-----------------9\--|
D|----------3-2-1--|--------------|-------3/5-----------|
A|--1--------------|--------------|--------------3/-----|
E|-----------------|-------6-5-4--|--3------------------|


[verse 6]

G|---------------|---------------|---------------|---------------|
D|---------------|--3---3--------|--5---5--------|--3------------|
A|--------3---3--|--------5---5--|--------3---3--|------3-3---3--|
E|--3---3--------|---------------|---------------|---------------|


G|-----------------------------|---------------|-----------------|
D|-----------------------------|---------------|--3---3-----3-4--|
A|--------3---3-2-1---1-4---4--|--------3---3--|--------5-5------|
E|--1---1---1------------------|--3---3--------|-----------------|


                                                      [outro]
G|---------------|------.------------|--------------|----------|
D|--5------------|--3-3-3------------|--------------|--3-------|
A|------5-3---3--|--------3-5-3------|--------3--3--|----------|
E|---------------|--------------5-4--|--3---3-------|-------1--|



*********************

/ : slide up
\ : slide down
x : dead note
. : staccato

*********************

in regular sequence!


Добавлено: 19.10.2017
Другие материалы по этой песне:
  • Аккорды и текст

Страница создана 19.10.2017
http://primanota.ru/masamichi-sugi/nobody-chords.htm
Привет, Гость.
Предлагаем пройти революционный курс по гитаре.
Подарок от PrimaNota.Ru, забирай!