PrimaNota.ru - самый крупный в мире бесплатный архив песенных текстов, аккордов, табулатур и нот


Masamichi Sugi - No Time - бас-таба, видео

Регистрация Запомнить меня
Войти через:  Facebook Google Twitter Vk Yandex Mail.ru

Masamichi Sugi - No Time - бас-таба, видео

Печатать
Просмотров: 35
Уроки эстрадного вокала в Санкт-Петербурге
[Intro]
G|----------------|----------------|----------------|----------------|
D|----------------|----------------|----------------|----------------|
A|----------------|----------------|-3-3-3-3-3-3-3-3|-3-3-3-3-3-3-3-3|
E|-5-5-5-5-5-5-5-5|-5-5-5-5-5-5-5-5|----------------|----------------|

G|----------------|----------------|----------------|----------------|
D|----------------|----------------|----------------|----------------|
A|----------------|----------------|----------------|----------------|
E|-5-5-5-5-5-5-5-5|-5-5-5-5-5-5-5-5|-1-1-1-1-1-1-1-1|-3-3-3-3-3-3-3-3|

[Verse 1]
G|----------------|----------------|----------------|----------------|
D|----------------|----------------|----------------|----------------|
A|-----.-.-.-.-.-.|-.-.-.-.-.-.-.-.|-----.-.-.-.-.-.|-.-.-.-.-.-.-.-.|
E|-5-5-5-5-5-5-5-5|-5-5-5-5-5-5-5-5|-2-2-2-2-2-2-2-2|-2-2-2-2-2-2-2-2|

G|----------------|----------------|----------------|---------------|
D|-----.-.-.-.-.-.|-.-.-.-.-.-.-.-.|----------------|---------------|
A|-2-2-2-2-2-2-2-2|-2-2-2-2-2-2-2-2|-----.-.-.-.-.-.|-.-.-.-.-.-.--.|
E|----------------|----------------|-3-3-3-3-3-3-3-3|-0-0-0-0-0-0--0|

G|----------------|----------------|----------------|----------------|
D|----------------|----------------|----------------|----------------|
A|-----.-.-.-.-.-.|-.-.-.-.-.-.-.-.|-----.-.-.-.-.-.|-.-.-.-.-.-.-.-.|
E|-5-5-5-5-5-5-5-5|-5-5-5-5-5-5-5-5|-2-2-2-2-2-2-2-2|-2-2-2-2-2-2-2-2|

G|----------------|----------------|----------------|---------------|
D|-----.-.-.-.-.-.|-.-.-.-.-.-.-.-.|----------------|------------14\|
A|-2-2-2-2-2-2-2-2|-2-2-2-2-2-2-2-2|-----.-.-.-.-.-.|---------------|
E|----------------|----------------|-3-3-3-3-3-3-3-3|-0-0-0-0-------|

[Pre-Chorus]
G|------------|-------------|------------|-------------|
D|------------|-------------|------------|-------------|
A|------------|-7---7-------|-5---5-5----|-5---5-5----5|
E|-5---5-5---5|-------5-5--5|-----------5|---------5---|

G|------------|-------------|------------|----------------|
D|------------|-3---3-3----3|-2--2--2--2-|-2-2-2-2-2-2-0-0|
A|-------3---3|---------3---|------------|----------------|
E|-5---5------|-------------|------------|----------------|

[Chorus]
G|----------------|------------------|----------------|----------------|
D|----------------|------------------|----------------|-3-3-3-3-5-5-5-5|
A|-3-3-3-3-3-3-3-3|-3/7-7-7-7-7-7-7-7|-5-5-5-5-5-5-5-5|----------------|
E|----------------|------------------|----------------|----------------|

G|----------------|------------------|----------------|----------------|
D|----------------|------------------|----------------|-3-3-3-3-5-5----|
A|-3-3-3-3-3-3-3-3|-3/7-7-7-7-7-7-7-7|-5-5-5-5-5-5-5-5|-------------2--|
E|----------------|------------------|----------------|---------------3|

[Interlude]
G|----------------|----------------|----------------|----------------|
D|----------------|----------------|----------------|----------------|
A|----------------|----------------|-3-3-3-3-3-3-3-3|-3-3-3-3-3-3-3-3|
E|-5-5-5-5-5-5-5-5|-5-5-5-5-5-5-5-5|----------------|----------------|

G|----------------|----------------|----------------|----------------|
D|----------------|----------------|----------------|----------------|
A|----------------|----------------|----------------|----------------|
E|-5-5-5-5-5-5-5-5|-5-5-5-5-5-5-5-5|-1-1-1-1-1-1-1-1|-3-3-3-3-3-3-3-3|

[Verse 2]
G|----------------|----------------|----------------|----------------|
D|----------------|----------------|----------------|----------------|
A|-----.-.-.-.-.-.|-.-.-.-.-.-.-.-.|-----.-.-.-.-.-.|-.-.-.-.-.-.-.-.|
E|-5-5-5-5-5-5-5-5|-5-5-5-5-5-5-5-5|-2-2-2-2-2-2-2-2|-2-2-2-2-2-2-2-2|

G|----------------|----------------|----------------|---------------|
D|-----.-.-.-.-.-.|-.-.-.-.-.-.-.-.|----------------|---------------|
A|-2-2-2-2-2-2-2-2|-2-2-2-2-2-2-2-2|-----.-.-.-.-.-.|-.-.-.-.-.-.--.|
E|----------------|----------------|-3-3-3-3-3-3-3-3|-0-0-0-0-0-0--0|

G|----------------|----------------|----------------|----------------|
D|----------------|----------------|----------------|----------------|
A|-----.-.-.-.-.-.|-.-.-.-.-.-.-.-.|-----.-.-.-.-.-.|-.-.-.-.-.-.-.-.|
E|-5-5-5-5-5-5-5-5|-5-5-5-5-5-5-5-5|-2-2-2-2-2-2-2-2|-2-2-2-2-2-2-2-2|

G|----------------|----------------|----------------|---------------|
D|-----.-.-.-.-.-.|-.-.-.-.-.-.-.-.|----------------|------------14\|
A|-2-2-2-2-2-2-2-2|-2-2-2-2-2-2-2-2|-----.-.-.-.-.-.|---------------|
E|----------------|----------------|-3-3-3-3-3-3-3-3|-0-0-0-0-------|

[Pre-Chorus]
G|------------|-------------|------------|-------------|
D|------------|-------------|------------|-------------|
A|------------|-7---7-------|-5---5-5----|-5---5-5----5|
E|-5---5-5---5|-------5-5--5|-----------5|---------5---|

G|------------|-------------|------------|----------------|
D|------------|-3---3-3----3|-2--2--2--2-|-2-2-2-2-2-2-0-0|
A|-------3---3|---------3---|------------|----------------|
E|-5---5------|-------------|------------|----------------|

[Chorus]
G|----------------|------------------|----------------|----------------|
D|----------------|------------------|----------------|-3-3-3-3-5-5-5-5|
A|-3-3-3-3-3-3-3-3|-3/7-7-7-7-7-7-7-7|-5-5-5-5-5-5-5-5|----------------|
E|----------------|------------------|----------------|----------------|

G|----------------|------------------|----------------|----------------|
D|----------------|------------------|----------------|-3-3-3-3-5-5----|
A|-3-3-3-3-3-3-3-3|-3/7-7-7-7-7-7-7-7|-5-5-5-5-5-5-5-5|-------------2--|
E|----------------|------------------|----------------|---------------3|

G|------------------------|------------------------|---------|--------|--------|-----------|
D|-----5/7---5-------5----|-----5/7---5-------5----|---------|--------|--------|-----------|
A|---------------8--------|---------------8--------|---------|--------|--------|----10--10-|
E|-5-5--------------------|-5-5--------------------|-5-------|--------|--------|-----------|

G|-----------------------|---------------------|
D|-----------------------|---------------------|
A|-12---\---------10--10-|-12---\--------------|
E|-----------------------|----------------3--3-|

[Instrumental]
G|----------------|----------------|----------------|----------------|
D|----------------|----------------|----------------|----------------|
A|-.-.-.-.-.-.-.-.|-.-.-.-.-.-.-.-.|-----.-.-.-.-.-.|-.-.-.-.-.-.-.-.|
E|-5-5-5-5-5-5-5-5|-5-5-5-5-5-5-5-5|-2-2-2-2-2-2-2-2|-2-2-2-2-2-2-2-2|

G|----------------|----------------|----------------|----------------|
D|-----.-.-.-.-.-.|-.-.-.-.-.-.-.-.|----------------|----------------|
A|-2-2-2-2-2-2-2-2|-2-2-2-2-2-2-2-2|-----.-.-.-.-.-.|----------------|
E|----------------|----------------|-3-3-3-3-3-3-3-3|-0-0-0-0-0-0-0-0|

[Chorus]
G|----------------|------------------|----------------|----------------| (x3)
D|----------------|------------------|----------------|-3-3-3-3-5-5-5-5|
A|-3-3-3-3-3-3-3-3|-3/7-7-7-7-7-7-7-7|-5-5-5-5-5-5-5-5|----------------|
E|----------------|------------------|----------------|----------------|

G|----------------|------------------|----------------|----------------|
D|----------------|------------------|----------------|-3-3-3-3-5-5----|
A|-3-3-3-3-3-3-3-3|-3/7-7-7-7-7-7-7-7|-5-5-5-5-5-5-5-5|-------------2--|
E|----------------|------------------|----------------|---------------3|

[Outro]
G|----------------|----------------|----------------|----------------| (x4)
D|----------------|----------------|----------------|----------------|
A|----------------|----------------|-3-3-3-3-3-3-3-3|-3-3-3-3-3-3-3-3|
E|-5-5-5-5-5-5-5-5|-5-5-5-5-5-5-5-5|----------------|----------------|

G|----------------|----------|
D|----------------|----------|
A|----------------|----------|
E|-5-5-5-5-5-5-5-5|-5-5-5-5-5|



************************

| / slide up
| \ slide down
| . staccato

************************
Добавлено: 19.10.2017
Другие материалы по этой песне:
  • Аккорды и текст

Страница создана 19.10.2017
http://primanota.ru/masamichi-sugi/no-time-chords.htm
Привет, Гость.
Предлагаем пройти революционный курс по гитаре.
Подарок от PrimaNota.Ru, забирай!