PrimaNota.ru - самый крупный в мире бесплатный архив песенных текстов, аккордов, табулатур и нот


Masamichi Sugi - Last Night - аккорды и текст, бас-таба, видео

Регистрация Запомнить меня
Войти через:  Facebook Google Twitter Vk Yandex Mail.ru

Masamichi Sugi - Last Night - аккорды и текст, бас-таба, видео

Печатать
Просмотров: 101
Уроки эстрадного вокала в Санкт-Петербурге
Last Night
Masamichi Sugi
Song : https://www.youtube.com/watch?v=03wO4oyiDHM


  [intro]
G|-------------------|-------------------|-------------------|-------------------|
D|--5-5-5-5-5-5-5-5--|--3-3-3-3-3-3-3-3--|--2-2-2-2-2-2-2-2--|--0h1-1-1-1-1-1-1--|
A|-------------------|-------------------|-------------------|-------------------|
E|-------------------|-------------------|-------------------|-------------------|


G|--------------------|
D|--1--1--1--1--0-----|
A|-----------------3--|
E|--------------------|


  [verse 1]
G|---------|---------|---------|----------------|
D|---------|---------|---------|--3---3--1-0----|
A|--1---1--|---------|--3---3--|-------------3--|
E|---------|--3---3--|---------|----------------|


G|---------|---------|---------|--------7--5----|
D|---------|---------|---------|------7------7--|
A|--1---1--|---------|--3---3--|--5-5-----------|
E|---------|--3---3--|---------|----------------|


G|----------7--|----------7--|----------7--|--------------|
D|--5--5/8-----|--4--4/8-----|--3--3/8-----|--------------|
A|-------------|-------------|-------------|--7---7--7-5--|
E|-------------|-------------|-------------|--------------|


G|-------------------|-------------------|-------------------|-------------------|
D|-------------------|-------------------|-------------------|-------------------|
A|--3-3-3-3-3-3-3-3--|--3-3-3-3-3-3-3-3--|--5-5-5-5-5-5-5-5--|--5-5-3-3-2-2-0-0--|
E|-------------------|-------------------|-------------------|-------------------|

  

  [chorus 1]
G|----------|----------|------------|----------|----------|------------|
D|----------|-----.----|------------|-----.----|----------|-------.----|
A|-----.----|--2--2-2--|-----.------|--5--5-5--|-----.----|--5/7--7-7--|
E|--3--3-3--|----------|--5--5-5--5-|----------|--7--7-7--|------------|


G|-----.------------------|----------|----------|----------|----------|
D|--7--7-7---7\-----.-----|----------|-----.----|----------|-----.----|
A|---------7-----3--3-5\--|-----.----|--2--2-2--|-----.----|--5--5-5--|
E|------------------------|--3--3-3--|----------|--5--5-5--|----------|


G|----------|------------|----------|------------------8--8/12--10--8--|
D|----------|-------.----|----------|----------5--5/8------------------|
A|-----.----|--5/7--7-7--|-----.----|--3---5---------------------------|
E|--7--7-7--|------------|--5--5-5--|----------------------------------|


  [verse 2]
G|---------|---------|---------|----------------|
D|---------|---------|---------|--3---3--1-0----|
A|--1---1--|---------|--3---3--|-------------3--|
E|---------|--3---3--|---------|----------------|


G|---------|---------|---------|------5-6-7--------|
D|---------|---------|---------|--0-0--------08-7--|
A|--1---1--|---------|--3---3--|-------------------|
E|---------|--3---3--|---------|-------------------|


G|----------7--|----------7--|----------7--|--------------|
D|--5--5/8-----|--4--4/8-----|--3--3/8-----|--------------|
A|-------------|-------------|-------------|--7---7--7-5--|
E|-------------|-------------|-------------|--------------|


G|-------------------|-------------------|-------------------|-------------|
D|-------------------|-------------------|-------------------|-------------|
A|--3-3-3-3-3-3-3-3--|--3-3-3-3-3-3-3-3--|--5-5-5-5-5-5-5-5--|--5-5-5-5-5--|
E|-------------------|-------------------|-------------------|-------------|


  [chorus 2]
G|---------------|--------------|--------------|--------------|
D|---------------|------.-------|--------------|------.-------|
A|------.--------|--2---2-2--2--|------.-------|--5---5-5--3--|
E|--3---3-3----3-|--------------|--5---5-5--5--|--------------|


G|-------------|-------------|-----5--5/9--|----------------|
D|-------------|-----6--6/9--|--7----------|----------------|
A|-----5--5/9--|--7----------|-------------|----------------|
E|--7----------|-------------|-------------|--8--8-10--8/10-|


G|----------|----------|----------|------7-5-------|
D|----------|-----.----|----------|----7------7----|
A|-----.----|--2--2-2--|-----.----|--5----------5--|
E|--3--3-3--|----------|--5--5-5--|----------------|


G|-------------|-------------|-----5--5/9--|-------------|
D|-------------|-----6--6/9--|--7----------|-------------|
A|-----5--5/9--|--7----------|-------------|-------------|
E|--7----------|-------------|-------------|--8---10--8--|


  [verse 3]
G|---------------------------|
D|-----5---3---2---2--0------|
A|----------------------1-2--|
E|--3------------------------|


G|--------------------------| (x 2)
D|--------------------------|
A|--------------------------|
E|--3--3--3--3--3--3--3--3--|


G|-----------------------------|-------------------|-------------------|
D|----------------------5---6--|-------------------|-------------------|
A|-----------------------------|--.-.-.-.-.-.-.-.--|--5-5-5-5-5-5-5-5--|
E|--3--3--3--3--3--3--3---4----|--5-5-5-5-5-5-5-5--|-------------------|


G|--------------------|
D|--------------------|
A|--6--6--6--6--5--3--|
E|--------------------|


  [verse 4]
G|---------|---------|---------|----------------|
D|---------|---------|---------|--3---3--1-0----|
A|--1---1--|---------|--3---3--|-------------3--|
E|---------|--3---3--|---------|----------------|


G|---------|---------|----------------|--------7--5------|
D|---------|---------|----------------|------7------8-7--|
A|--1---1--|---------|--3---3--2-3-4--|--5-5-------------|
E|---------|--3---3--|----------------|------------------|


G|----------7--|----------7--|----------7--|-----------------|
D|--5--5/8-----|--4--4/8-----|--3--3/8-----|-----------------|
A|-------------|-------------|-------------|--6/7--6/7----5--|
E|-------------|-------------|-------------|-----------------|


G|-------------------|----------5--------|-------------------|-------------------|
D|-------------------|--------5---5------|-------------------|-------------------|
A|--3-3-3-3-3-3-3-3--|--3-5-6-------6-3--|--5-5-5-5-5-5-5-5--|--5-5-3-3-2-2-0-0--|
E|-------------------|-------------------|-------------------|-------------------|


  [chorus 3]
G|----------|----------|----------|-------7--5-----|
D|----------|-----.----|----------|-----7------7\--|
A|-----.----|--2--2-2--|-----.----|--5-------------|
E|--3--3-3--|----------|--5--5-5--|----------------|


G|-------------|-------------|-----5-7-5-------------|
D|-------------|-----6--6/9--|--7--------7\----------|
A|-----5--5/9--|--7----------|---------------3--3-5--|
E|--7----------|-------------|-----------------------|


G|----------|----------|----------|-------7-5------|
D|----------|-----.----|----------|-----7-----7----|
A|-----.----|--2--2-2--|-----.----|--5----------5--|
E|--3--3-3--|----------|--5--5-5--|----------------|


G|-------------|-------------|-----5--5/9--|-----------------|
D|-------------|-----6--6/9--|--7----------|-----------------|
A|-----5--5/9--|--7----------|-------------|-----------------|
E|--7----------|-------------|-------------|--8-8-8--10--10--|


  [outro]
G|-------------------|-------------------|-------------------|-------------------|
D|--5-5-5-5-5-5-5-5--|--3-3-3-3-3-3-3-3--|--2-2-2-2-2-2-2-2--|--0h1-1-1-1-1-1-1--|
A|-------------------|-------------------|-------------------|-------------------|
E|-------------------|-------------------|-------------------|-------------------|



G|-------------------|-------------------|-------------------|--------------------|
D|--5-5-5-5-5-5-5-5--|--3-3-3-3-3-3-3-3--|--2-2-2-2-2-2-2-2--|--0h1-1-1-1---------|
A|-------------------|-------------------|-------------------|--------------------|
E|-------------------|-------------------|-------------------|------------0h1--3--|


****************************************

/ : slide up
\ : slide down
h : hammering
. : staccato

****************************************

in regular sequence!

Добавлено: 19.10.2017
Другие материалы по этой песне:
  • Аккорды и текст

Страница создана 10.06.2017
http://primanota.ru/masamichi-sugi/last-night-chords.htm
Привет, Гость.
Предлагаем пройти революционный курс по гитаре.
Подарок от PrimaNota.Ru, забирай!