PrimaNota.ru - самый крупный в мире бесплатный архив песенных текстов, аккордов, табулатур и нот


Masamichi Sugi - 恋する01 - бас-таба, видео

Регистрация Запомнить меня
Войти через:  Facebook Google Twitter Vk Yandex Mail.ru

Masamichi Sugi - 恋する01 - бас-таба, видео

Печатать
Просмотров: 46
Уроки эстрадного вокала в Санкт-Петербурге
[Intro]
G|-----------|------------|-----------|------------|
D|-----------|------------|-----------|------------|
A|-3---2-----|-----------2|-3---2-----|----------5-|
E|---------5-|-3---3-3----|---------5-|-3---3--3---|

[Verse 1]
G|-----------|-----------|-----------|-----------|
D|-----------|-----------|-----------|-----------|
A|-----------|-2---2-3---|-------7---|-8---8-5---|
E|-3---3-5---|-----------|-5---5-----|-----------|

G|-----------|-----------|-----------|------------|
D|-----------|-----------|-----------|------------|
A|-----------|-2---2-3---|-------5---|----------2-|
E|-3---3-5---|-----------|-5---5-----|-3---3--3---|

[Chorus]
G|-----------|-----------|-----------|-----------|
D|-----------|-2---2-----|-----------|-------2---|
A|-3---3-5---|-------5---|-3---3-5---|-2---2-----|
E|-----------|-----------|-----------|-----------|

G|-----------|-----------|-----------|-------------|
D|-----------|-2---2-----|-----------|-------------|
A|-3---3-5---|-------3---|-------5---|------------2|
E|-----------|-----------|-3---3-----|-3---3-3--3--|

[Interlude]
G|-----------|------------|-----------|------------|
D|-----------|------------|-----------|------------|
A|-3---2-----|-----------2|-3---2-----|----------5-|
E|---------5-|-3---3-3----|---------5-|-3---3--3---|

[Verse 2]
G|-----------|-----------|-----------|-----------|
D|-----------|-----------|-----------|-----------|
A|-----------|-2---2-3---|-------7---|-8---8-5---|
E|-3---3-5---|-----------|-5---5-----|-----------|

G|-----------|-----------|-----------|------------|
D|-----------|-----------|-----------|-5---5------|
A|-----------|-2---2-3---|-------5---|----------2-|
E|-3---3-5---|-----------|-5---5-----|--------3---|

[Chorus]
G|-----------|-----------|-----------|-----------|
D|-----------|-2---2-----|-----------|-------2---|
A|-3---3-5---|-------5---|-3---3-5---|-2---2-----|
E|-----------|-----------|-----------|-----------|

G|-----------|-----------|-----------|-------------|
D|-----------|-2---2-----|-----------|----------5--|
A|-3---3-5---|-------3---|-------5---|--------5---5|
E|-----------|-----------|-3---3-----|-3---3-------|

[Bridge]
G|------------|------------|------------|------------|
D|-3----------|-----------1|-3----------|------------|
A|-----1-1---3|-3---3-3----|-----1-1---1|-3---3-3----|
E|------------|------------|------------|-----------3|

G|------------|------------|------------|--------------|
D|------------|------------|------------|--------------|
A|------------|------------|------------|-5---5-5-5-5-5|
E|-4---4-4---4|-4---4-4---4|-5---5-5---5|--------------|

[Instrumental]
G|-----------|-----------|-----------|------------|
D|-----------|-----------|-----------|------------|
A|-----------|-2---2-3---|-------7---|-8---8-5---5|
E|-3---3-5---|-----------|-5---5-----|------------|

G|-----------|-----------|-----------|------------|
D|-----------|-----------|-----------|------------|
A|-----------|-2---2-3---|-------5---|----------2-|
E|-3---3-5---|-----------|-5---5-----|-3---3--3---|

[Chorus]
G|-----------|-----------|-----------|-----------|
D|-----------|-2---2-----|-----------|-----4-2---|
A|-3---3-5---|-------5---|-3---3-5---|-2---------|
E|-----------|-----------|-----------|-----------|

G|-----------|-----------|-----------|------------|
D|-----------|-2---2-----|-----------|------------|
A|-3---3-5---|-------3---|-------5---|----------7-|
E|-----------|-----------|-3---3-----|-3---3-0----|

G|-----------|------------|-----------|
D|-----------|------------|-----------|
A|-------3---|----------7-|-------3---|
E|-5---5-----|-3---3-0----|-5---5-----|

[Outro]
G|-----------|-------------|------------|----------|
D|-----------|----------5-/|-10---9---7-|----------|
A|-3---2-----|--------5----|------------|-10-------|
E|---------5-|-3---3-------|------------|----------|



******************

| / slide up

******************
Добавлено: 19.10.2017
Вам также может быть интересно:
Другие материалы по этой песне:
  • Аккорды и текст

Страница создана 19.10.2017
http://primanota.ru/masamichi-sugi/01-chords.htm
Привет, Гость.
Предлагаем пройти революционный курс по гитаре.
Подарок от PrimaNota.Ru, забирай!